ISO-10303-21;
HEADER;
FILE_DESCRIPTION(('TurboCAD Mac Pro'),'Build 980');
FILE_NAME('A1063.stp','  ',(''),(''),'ACIS Interop','IMSI','TurboCAD Mac Pro BY IMSI, INCORPORATED');
FILE_SCHEMA(('automotive_design'));
ENDSEC;
DATA;
#1=MECHANICAL_DESIGN_GEOMETRIC_PRESENTATION_REPRESENTATION(' ',(#14,#15,#16,#17,#18,#19,#20,#21,#22,#23,#24,#25,#26,#27,#28,#29,#30,#31,#32),#10);
#2=PRODUCT_DEFINITION_CONTEXT('',#33,'design');
#3=APPLICATION_PROTOCOL_DEFINITION('INTERNATIONAL STANDARD','automotive_design',1994,#33);
#4=PRODUCT_CATEGORY_RELATIONSHIP('NONE','NONE',#34,#35);
#5=SHAPE_DEFINITION_REPRESENTATION(#36,#37);
#6=PRODUCT_DEFINITION_CONTEXT('',#38,'design');
#7=APPLICATION_PROTOCOL_DEFINITION('INTERNATIONAL STANDARD','automotive_design',1994,#38);
#8=PRODUCT_CATEGORY_RELATIONSHIP('NONE','NONE',#39,#40);
#9=SHAPE_DEFINITION_REPRESENTATION(#41,#42);
#10= (GEOMETRIC_REPRESENTATION_CONTEXT(3)GLOBAL_UNCERTAINTY_ASSIGNED_CONTEXT((#45))GLOBAL_UNIT_ASSIGNED_CONTEXT((#47,#48,#49))REPRESENTATION_CONTEXT('NONE','WORKSPACE'));
#14=STYLED_ITEM('',(#51),#52);
#15=STYLED_ITEM('',(#53),#54);
#16=STYLED_ITEM('',(#55),#56);
#17=STYLED_ITEM('',(#57),#58);
#18=STYLED_ITEM('',(#59),#60);
#19=STYLED_ITEM('',(#61),#62);
#20=STYLED_ITEM('',(#63),#64);
#21=STYLED_ITEM('',(#65),#66);
#22=STYLED_ITEM('',(#67),#68);
#23=STYLED_ITEM('',(#69),#70);
#24=STYLED_ITEM('',(#71),#72);
#25=STYLED_ITEM('',(#73),#74);
#26=STYLED_ITEM('',(#75),#76);
#27=STYLED_ITEM('',(#77),#78);
#28=STYLED_ITEM('',(#79),#80);
#29=STYLED_ITEM('',(#81),#82);
#30=STYLED_ITEM('',(#83),#84);
#31=STYLED_ITEM('',(#85),#86);
#32=STYLED_ITEM('',(#87),#88);
#33=APPLICATION_CONTEXT(' ');
#34=PRODUCT_CATEGORY('part','NONE');
#35=PRODUCT_RELATED_PRODUCT_CATEGORY('detail',' ',(#89));
#36=PRODUCT_DEFINITION_SHAPE('NONE','NONE',#90);
#37=ADVANCED_BREP_SHAPE_REPRESENTATION('1',(#62,#91),#10);
#38=APPLICATION_CONTEXT(' ');
#39=PRODUCT_CATEGORY('part','NONE');
#40=PRODUCT_RELATED_PRODUCT_CATEGORY('detail',' ',(#92));
#41=PRODUCT_DEFINITION_SHAPE('NONE','NONE',#93);
#42=GEOMETRICALLY_BOUNDED_SURFACE_SHAPE_REPRESENTATION('2',(#94,#95),#10);
#45=UNCERTAINTY_MEASURE_WITH_UNIT(LENGTH_MEASURE(1.0E-06),#47,'','');
#47= (CONVERSION_BASED_UNIT('INCH',#98)LENGTH_UNIT()NAMED_UNIT(#101));
#48= (NAMED_UNIT(#103)PLANE_ANGLE_UNIT()SI_UNIT($,.RADIAN.));
#49= (NAMED_UNIT(#103)SOLID_ANGLE_UNIT()SI_UNIT($,.STERADIAN.));
#51=PRESENTATION_STYLE_ASSIGNMENT((#109));
#52=ADVANCED_FACE('',(#110,#111),#112,.F.);
#53=PRESENTATION_STYLE_ASSIGNMENT((#113));
#54=TRIMMED_CURVE('',#114,(PARAMETER_VALUE(0.0)),(PARAMETER_VALUE(1.2499125)),.T.,.UNSPECIFIED.);
#55=PRESENTATION_STYLE_ASSIGNMENT((#115));
#56=TRIMMED_CURVE('',#116,(PARAMETER_VALUE(0.0)),(PARAMETER_VALUE(1.2499125)),.T.,.UNSPECIFIED.);
#57=PRESENTATION_STYLE_ASSIGNMENT((#117));
#58=ADVANCED_FACE('',(#118),#119,.T.);
#59=PRESENTATION_STYLE_ASSIGNMENT((#120));
#60=TRIMMED_CURVE('',#121,(PARAMETER_VALUE(0.0)),(PARAMETER_VALUE(1.2499125)),.T.,.UNSPECIFIED.);
#61=PRESENTATION_STYLE_ASSIGNMENT((#122));
#62=MANIFOLD_SOLID_BREP('1',#123);
#63=PRESENTATION_STYLE_ASSIGNMENT((#124));
#64=ADVANCED_FACE('',(#125,#126),#127,.T.);
#65=PRESENTATION_STYLE_ASSIGNMENT((#128));
#66=ADVANCED_FACE('',(#129),#130,.T.);
#67=PRESENTATION_STYLE_ASSIGNMENT((#131));
#68=TRIMMED_CURVE('',#132,(PARAMETER_VALUE(0.0)),(PARAMETER_VALUE(1.0)),.T.,.UNSPECIFIED.);
#69=PRESENTATION_STYLE_ASSIGNMENT((#133));
#70=ADVANCED_FACE('',(#134),#135,.T.);
#71=PRESENTATION_STYLE_ASSIGNMENT((#136));
#72=TRIMMED_CURVE('',#137,(PARAMETER_VALUE(0.0)),(PARAMETER_VALUE(1.0)),.T.,.UNSPECIFIED.);
#73=PRESENTATION_STYLE_ASSIGNMENT((#138));
#74=ADVANCED_FACE('',(#139),#140,.T.);
#75=PRESENTATION_STYLE_ASSIGNMENT((#141));
#76=ADVANCED_FACE('',(#142),#143,.T.);
#77=PRESENTATION_STYLE_ASSIGNMENT((#144));
#78=TRIMMED_CURVE('',#145,(PARAMETER_VALUE(0.0)),(PARAMETER_VALUE(1.0)),.T.,.UNSPECIFIED.);
#79=PRESENTATION_STYLE_ASSIGNMENT((#146));
#80=TRIMMED_CURVE('',#147,(PARAMETER_VALUE(0.0)),(PARAMETER_VALUE(1.0)),.T.,.UNSPECIFIED.);
#81=PRESENTATION_STYLE_ASSIGNMENT((#148));
#82=TRIMMED_CURVE('',#149,(PARAMETER_VALUE(0.0)),(PARAMETER_VALUE(1.2499125)),.T.,.UNSPECIFIED.);
#83=PRESENTATION_STYLE_ASSIGNMENT((#150));
#84=ADVANCED_FACE('',(#151),#152,.T.);
#85=PRESENTATION_STYLE_ASSIGNMENT((#153));
#86=ADVANCED_FACE('',(#154),#155,.T.);
#87=PRESENTATION_STYLE_ASSIGNMENT((#156));
#88=ADVANCED_FACE('',(#157),#158,.T.);
#89=PRODUCT('1','1','PART-1-DESC',(#159));
#90=PRODUCT_DEFINITION('NONE','NONE',#160,#2);
#91=AXIS2_PLACEMENT_3D('',#161,#162,#163);
#92=PRODUCT('2','2','PART-2-DESC',(#164));
#93=PRODUCT_DEFINITION('NONE','NONE',#165,#6);
#94=GEOMETRIC_SET('2',(#166,#167,#168,#169,#170,#171,#172,#173));
#95=AXIS2_PLACEMENT_3D('',#174,#175,#176);
#98=LENGTH_MEASURE_WITH_UNIT(LENGTH_MEASURE(25.4),#177);
#101=DIMENSIONAL_EXPONENTS(1.0,0.0,0.0,0.0,0.0,0.0,0.0);
#103=DIMENSIONAL_EXPONENTS(0.0,0.0,0.0,0.0,0.0,0.0,0.0);
#109=SURFACE_STYLE_USAGE(.BOTH.,#178);
#110=FACE_BOUND('',#179,.T.);
#111=FACE_OUTER_BOUND('',#180,.T.);
#112=PLANE('',#181);
#113=CURVE_STYLE('',#182,POSITIVE_LENGTH_MEASURE(1.0E-06),#183);
#114=LINE('',#184,#185);
#115=CURVE_STYLE('',#186,POSITIVE_LENGTH_MEASURE(1.0E-06),#187);
#116=LINE('',#188,#189);
#117=SURFACE_STYLE_USAGE(.BOTH.,#190);
#118=FACE_OUTER_BOUND('',#191,.T.);
#119=PLANE('',#192);
#120=CURVE_STYLE('',#193,POSITIVE_LENGTH_MEASURE(1.0E-06),#194);
#121=LINE('',#195,#196);
#122=SURFACE_STYLE_USAGE(.BOTH.,#197);
#123=CLOSED_SHELL('',(#70,#84,#58,#66,#76,#74,#86,#88,#64,#52));
#124=SURFACE_STYLE_USAGE(.BOTH.,#198);
#125=FACE_BOUND('',#199,.T.);
#126=FACE_OUTER_BOUND('',#200,.T.);
#127=PLANE('',#201);
#128=SURFACE_STYLE_USAGE(.BOTH.,#202);
#129=FACE_OUTER_BOUND('',#203,.T.);
#130=PLANE('',#204);
#131=CURVE_STYLE('',#205,POSITIVE_LENGTH_MEASURE(1.0E-06),#206);
#132=B_SPLINE_CURVE_WITH_KNOTS('',3,(#207,#208,#209,#210),.UNSPECIFIED.,.F.,.F.,(4,4),(0.0,1.0),.UNSPECIFIED.);
#133=SURFACE_STYLE_USAGE(.BOTH.,#211);
#134=FACE_OUTER_BOUND('',#212,.T.);
#135=PLANE('',#213);
#136=CURVE_STYLE('',#214,POSITIVE_LENGTH_MEASURE(1.0E-06),#215);
#137=B_SPLINE_CURVE_WITH_KNOTS('',3,(#216,#217,#218,#219),.UNSPECIFIED.,.F.,.F.,(4,4),(0.0,1.0),.UNSPECIFIED.);
#138=SURFACE_STYLE_USAGE(.BOTH.,#220);
#139=FACE_OUTER_BOUND('',#221,.T.);
#140=B_SPLINE_SURFACE_WITH_KNOTS('',3,1,((#222,#223),(#224,#225),(#226,#227),(#228,#229)),.UNSPECIFIED.,.F.,.F.,.F.,(4,4),(2,2),(-1.0,-0.0),(0.0,0.1875),.UNSPECIFIED.);
#141=SURFACE_STYLE_USAGE(.BOTH.,#230);
#142=FACE_OUTER_BOUND('',#231,.T.);
#143=B_SPLINE_SURFACE_WITH_KNOTS('',3,1,((#232,#233),(#234,#235),(#236,#237),(#238,#239)),.UNSPECIFIED.,.F.,.F.,.F.,(4,4),(2,2),(-1.0,-0.0),(0.0,0.1875),.UNSPECIFIED.);
#144=CURVE_STYLE('',#240,POSITIVE_LENGTH_MEASURE(1.0E-06),#241);
#145=B_SPLINE_CURVE_WITH_KNOTS('',3,(#242,#243,#244,#245),.UNSPECIFIED.,.F.,.F.,(4,4),(0.0,1.0),.UNSPECIFIED.);
#146=CURVE_STYLE('',#246,POSITIVE_LENGTH_MEASURE(1.0E-06),#247);
#147=B_SPLINE_CURVE_WITH_KNOTS('',3,(#248,#249,#250,#251),.UNSPECIFIED.,.F.,.F.,(4,4),(0.0,1.0),.UNSPECIFIED.);
#148=CURVE_STYLE('',#252,POSITIVE_LENGTH_MEASURE(1.0E-06),#253);
#149=LINE('',#254,#255);
#150=SURFACE_STYLE_USAGE(.BOTH.,#256);
#151=FACE_OUTER_BOUND('',#257,.T.);
#152=PLANE('',#258);
#153=SURFACE_STYLE_USAGE(.BOTH.,#259);
#154=FACE_OUTER_BOUND('',#260,.T.);
#155=B_SPLINE_SURFACE_WITH_KNOTS('',3,1,((#261,#262),(#263,#264),(#265,#266),(#267,#268)),.UNSPECIFIED.,.F.,.F.,.F.,(4,4),(2,2),(-1.0,-0.0),(0.0,0.1875),.UNSPECIFIED.);
#156=SURFACE_STYLE_USAGE(.BOTH.,#269);
#157=FACE_OUTER_BOUND('',#270,.T.);
#158=B_SPLINE_SURFACE_WITH_KNOTS('',3,1,((#271,#272),(#273,#274),(#275,#276),(#277,#278)),.UNSPECIFIED.,.F.,.F.,.F.,(4,4),(2,2),(-1.0,-0.0),(0.0,0.1875),.UNSPECIFIED.);
#159=PRODUCT_CONTEXT('',#33,'mechanical');
#160=PRODUCT_DEFINITION_FORMATION_WITH_SPECIFIED_SOURCE(' ','NONE',#89,.NOT_KNOWN.);
#161=CARTESIAN_POINT('',(0.0,0.0,0.0));
#162=DIRECTION('',(0.0,0.0,1.0));
#163=DIRECTION('',(1.0,0.0,0.0));
#164=PRODUCT_CONTEXT('',#38,'mechanical');
#165=PRODUCT_DEFINITION_FORMATION_WITH_SPECIFIED_SOURCE(' ','NONE',#92,.NOT_KNOWN.);
#166=COMPOSITE_CURVE('',(#279),.U.);
#167=COMPOSITE_CURVE('',(#280),.U.);
#168=COMPOSITE_CURVE('',(#281),.U.);
#169=COMPOSITE_CURVE('',(#282),.U.);
#170=COMPOSITE_CURVE('',(#283),.U.);
#171=COMPOSITE_CURVE('',(#284),.U.);
#172=COMPOSITE_CURVE('',(#285),.U.);
#173=COMPOSITE_CURVE('',(#286),.U.);
#174=CARTESIAN_POINT('',(0.0,0.0,0.0));
#175=DIRECTION('',(0.0,0.0,1.0));
#176=DIRECTION('',(1.0,0.0,0.0));
#177= (NAMED_UNIT(#101)LENGTH_UNIT()SI_UNIT(.MILLI.,.METRE.));
#178=SURFACE_SIDE_STYLE('',(#288));
#179=EDGE_LOOP('',(#289,#290,#291,#292));
#180=EDGE_LOOP('',(#293,#294,#295,#296));
#181=AXIS2_PLACEMENT_3D('',#297,#298,#299);
#182=DRAUGHTING_PRE_DEFINED_CURVE_FONT('continuous');
#183=COLOUR_RGB('',0.0,0.0,0.0);
#184=CARTESIAN_POINT('',(1.2499125,0.0,0.0));
#185=VECTOR('',#300,1.0);
#186=DRAUGHTING_PRE_DEFINED_CURVE_FONT('continuous');
#187=COLOUR_RGB('',0.0,0.0,0.0);
#188=CARTESIAN_POINT('',(1.2499125,1.2499125,0.0));
#189=VECTOR('',#301,1.0);
#190=SURFACE_SIDE_STYLE('',(#302));
#191=EDGE_LOOP('',(#303,#304,#305,#306));
#192=AXIS2_PLACEMENT_3D('',#307,#308,#309);
#193=DRAUGHTING_PRE_DEFINED_CURVE_FONT('continuous');
#194=COLOUR_RGB('',0.0,0.0,0.0);
#195=CARTESIAN_POINT('',(0.0,0.0,0.0));
#196=VECTOR('',#310,1.0);
#197=SURFACE_SIDE_STYLE('',(#311));
#198=SURFACE_SIDE_STYLE('',(#312));
#199=EDGE_LOOP('',(#313,#314,#315,#316));
#200=EDGE_LOOP('',(#317,#318,#319,#320));
#201=AXIS2_PLACEMENT_3D('',#321,#322,#323);
#202=SURFACE_SIDE_STYLE('',(#324));
#203=EDGE_LOOP('',(#325,#326,#327,#328));
#204=AXIS2_PLACEMENT_3D('',#329,#330,#331);
#205=DRAUGHTING_PRE_DEFINED_CURVE_FONT('continuous');
#206=COLOUR_RGB('',0.0,0.0,0.0);
#207=CARTESIAN_POINT('',(0.828065277777777,0.624959722222222,0.0));
#208=CARTESIAN_POINT('',(0.828065277777777,0.737134722222222,0.0));
#209=CARTESIAN_POINT('',(0.737122222222221,0.828070833333333,0.0));
#210=CARTESIAN_POINT('',(0.624952777777777,0.828070833333333,0.0));
#211=SURFACE_SIDE_STYLE('',(#332));
#212=EDGE_LOOP('',(#333,#334,#335,#336));
#213=AXIS2_PLACEMENT_3D('',#337,#338,#339);
#214=DRAUGHTING_PRE_DEFINED_CURVE_FONT('continuous');
#215=COLOUR_RGB('',0.0,0.0,0.0);
#216=CARTESIAN_POINT('',(0.421841666666667,0.624959722222222,0.0));
#217=CARTESIAN_POINT('',(0.421841666666667,0.512790277777778,0.0));
#218=CARTESIAN_POINT('',(0.512777777777779,0.421847222222222,0.0));
#219=CARTESIAN_POINT('',(0.624952777777777,0.421847222222222,0.0));
#220=SURFACE_SIDE_STYLE('',(#340));
#221=EDGE_LOOP('',(#341,#342,#343,#344));
#222=CARTESIAN_POINT('',(0.421841666666667,0.624959722222222,0.0));
#223=CARTESIAN_POINT('',(0.421841666666667,0.624959722222222,0.1875));
#224=CARTESIAN_POINT('',(0.421841666666667,0.737134722222222,0.0));
#225=CARTESIAN_POINT('',(0.421841666666667,0.737134722222222,0.1875));
#226=CARTESIAN_POINT('',(0.512777777777779,0.828070833333333,0.0));
#227=CARTESIAN_POINT('',(0.512777777777779,0.828070833333333,0.1875));
#228=CARTESIAN_POINT('',(0.624952777777777,0.828070833333333,0.0));
#229=CARTESIAN_POINT('',(0.624952777777777,0.828070833333333,0.1875));
#230=SURFACE_SIDE_STYLE('',(#345));
#231=EDGE_LOOP('',(#346,#347,#348,#349));
#232=CARTESIAN_POINT('',(0.624952777777777,0.828070833333333,0.0));
#233=CARTESIAN_POINT('',(0.624952777777777,0.828070833333333,0.1875));
#234=CARTESIAN_POINT('',(0.737122222222221,0.828070833333333,0.0));
#235=CARTESIAN_POINT('',(0.737122222222221,0.828070833333333,0.1875));
#236=CARTESIAN_POINT('',(0.828065277777777,0.737134722222222,0.0));
#237=CARTESIAN_POINT('',(0.828065277777777,0.737134722222222,0.1875));
#238=CARTESIAN_POINT('',(0.828065277777777,0.624959722222222,0.0));
#239=CARTESIAN_POINT('',(0.828065277777777,0.624959722222222,0.1875));
#240=DRAUGHTING_PRE_DEFINED_CURVE_FONT('continuous');
#241=COLOUR_RGB('',0.0,0.0,0.0);
#242=CARTESIAN_POINT('',(0.624952777777777,0.828070833333333,0.0));
#243=CARTESIAN_POINT('',(0.512777777777779,0.828070833333333,0.0));
#244=CARTESIAN_POINT('',(0.421841666666667,0.737134722222222,0.0));
#245=CARTESIAN_POINT('',(0.421841666666667,0.624959722222222,0.0));
#246=DRAUGHTING_PRE_DEFINED_CURVE_FONT('continuous');
#247=COLOUR_RGB('',0.0,0.0,0.0);
#248=CARTESIAN_POINT('',(0.624952777777777,0.421847222222222,0.0));
#249=CARTESIAN_POINT('',(0.737122222222221,0.421847222222222,0.0));
#250=CARTESIAN_POINT('',(0.828065277777777,0.512790277777778,0.0));
#251=CARTESIAN_POINT('',(0.828065277777777,0.624959722222222,0.0));
#252=DRAUGHTING_PRE_DEFINED_CURVE_FONT('continuous');
#253=COLOUR_RGB('',0.0,0.0,0.0);
#254=CARTESIAN_POINT('',(0.0,1.2499125,0.0));
#255=VECTOR('',#350,1.0);
#256=SURFACE_SIDE_STYLE('',(#351));
#257=EDGE_LOOP('',(#352,#353,#354,#355));
#258=AXIS2_PLACEMENT_3D('',#356,#357,#358);
#259=SURFACE_SIDE_STYLE('',(#359));
#260=EDGE_LOOP('',(#360,#361,#362,#363));
#261=CARTESIAN_POINT('',(0.624952777777777,0.421847222222222,0.0));
#262=CARTESIAN_POINT('',(0.624952777777777,0.421847222222222,0.1875));
#263=CARTESIAN_POINT('',(0.512777777777779,0.421847222222222,0.0));
#264=CARTESIAN_POINT('',(0.512777777777779,0.421847222222222,0.1875));
#265=CARTESIAN_POINT('',(0.421841666666667,0.512790277777778,0.0));
#266=CARTESIAN_POINT('',(0.421841666666667,0.512790277777778,0.1875));
#267=CARTESIAN_POINT('',(0.421841666666667,0.624959722222222,0.0));
#268=CARTESIAN_POINT('',(0.421841666666667,0.624959722222222,0.1875));
#269=SURFACE_SIDE_STYLE('',(#364));
#270=EDGE_LOOP('',(#365,#366,#367,#368));
#271=CARTESIAN_POINT('',(0.828065277777777,0.624959722222222,0.0));
#272=CARTESIAN_POINT('',(0.828065277777777,0.624959722222222,0.1875));
#273=CARTESIAN_POINT('',(0.828065277777777,0.512790277777778,0.0));
#274=CARTESIAN_POINT('',(0.828065277777777,0.512790277777778,0.1875));
#275=CARTESIAN_POINT('',(0.737122222222221,0.421847222222222,0.0));
#276=CARTESIAN_POINT('',(0.737122222222221,0.421847222222222,0.1875));
#277=CARTESIAN_POINT('',(0.624952777777777,0.421847222222222,0.0));
#278=CARTESIAN_POINT('',(0.624952777777777,0.421847222222222,0.1875));
#279=COMPOSITE_CURVE_SEGMENT('',.CONTINUOUS.,.T.,#68);
#280=COMPOSITE_CURVE_SEGMENT('',.CONTINUOUS.,.T.,#78);
#281=COMPOSITE_CURVE_SEGMENT('',.CONTINUOUS.,.T.,#72);
#282=COMPOSITE_CURVE_SEGMENT('',.CONTINUOUS.,.T.,#80);
#283=COMPOSITE_CURVE_SEGMENT('',.CONTINUOUS.,.T.,#60);
#284=COMPOSITE_CURVE_SEGMENT('',.CONTINUOUS.,.T.,#82);
#285=COMPOSITE_CURVE_SEGMENT('',.CONTINUOUS.,.T.,#56);
#286=COMPOSITE_CURVE_SEGMENT('',.CONTINUOUS.,.T.,#54);
#288=SURFACE_STYLE_FILL_AREA(#369);
#289=ORIENTED_EDGE('',*,*,#370,.T.);
#290=ORIENTED_EDGE('',*,*,#371,.T.);
#291=ORIENTED_EDGE('',*,*,#372,.T.);
#292=ORIENTED_EDGE('',*,*,#373,.T.);
#293=ORIENTED_EDGE('',*,*,#374,.T.);
#294=ORIENTED_EDGE('',*,*,#375,.T.);
#295=ORIENTED_EDGE('',*,*,#376,.T.);
#296=ORIENTED_EDGE('',*,*,#377,.T.);
#297=CARTESIAN_POINT('',(0.624956249999999,0.62495625,0.0));
#298=DIRECTION('',(0.0,0.0,1.0));
#299=DIRECTION('',(1.0,0.0,0.0));
#300=DIRECTION('',(-1.0,0.0,0.0));
#301=DIRECTION('',(0.0,-1.0,0.0));
#302=SURFACE_STYLE_FILL_AREA(#378);
#303=ORIENTED_EDGE('',*,*,#379,.T.);
#304=ORIENTED_EDGE('',*,*,#380,.F.);
#305=ORIENTED_EDGE('',*,*,#377,.F.);
#306=ORIENTED_EDGE('',*,*,#381,.T.);
#307=CARTESIAN_POINT('',(1.2499125,0.62495625,0.0));
#308=DIRECTION('',(1.0,0.0,-0.0));
#309=DIRECTION('',(-0.0,1.0,0.0));
#310=DIRECTION('',(0.0,1.0,0.0));
#311=SURFACE_STYLE_FILL_AREA(#382);
#312=SURFACE_STYLE_FILL_AREA(#383);
#313=ORIENTED_EDGE('',*,*,#384,.F.);
#314=ORIENTED_EDGE('',*,*,#385,.F.);
#315=ORIENTED_EDGE('',*,*,#386,.F.);
#316=ORIENTED_EDGE('',*,*,#387,.F.);
#317=ORIENTED_EDGE('',*,*,#388,.F.);
#318=ORIENTED_EDGE('',*,*,#389,.F.);
#319=ORIENTED_EDGE('',*,*,#379,.F.);
#320=ORIENTED_EDGE('',*,*,#390,.F.);
#321=CARTESIAN_POINT('',(0.624956249999999,0.62495625,0.1875));
#322=DIRECTION('',(0.0,0.0,1.0));
#323=DIRECTION('',(1.0,0.0,0.0));
#324=SURFACE_STYLE_FILL_AREA(#391);
#325=ORIENTED_EDGE('',*,*,#389,.T.);
#326=ORIENTED_EDGE('',*,*,#392,.F.);
#327=ORIENTED_EDGE('',*,*,#374,.F.);
#328=ORIENTED_EDGE('',*,*,#380,.T.);
#329=CARTESIAN_POINT('',(0.624956249999999,0.0,0.0));
#330=DIRECTION('',(0.0,-1.0,0.0));
#331=DIRECTION('',(1.0,0.0,-0.0));
#332=SURFACE_STYLE_FILL_AREA(#393);
#333=ORIENTED_EDGE('',*,*,#388,.T.);
#334=ORIENTED_EDGE('',*,*,#394,.F.);
#335=ORIENTED_EDGE('',*,*,#375,.F.);
#336=ORIENTED_EDGE('',*,*,#392,.T.);
#337=CARTESIAN_POINT('',(0.0,0.62495625,0.0));
#338=DIRECTION('',(-1.0,-0.0,0.0));
#339=DIRECTION('',(0.0,-1.0,-0.0));
#340=SURFACE_STYLE_FILL_AREA(#395);
#341=ORIENTED_EDGE('',*,*,#387,.T.);
#342=ORIENTED_EDGE('',*,*,#396,.F.);
#343=ORIENTED_EDGE('',*,*,#372,.F.);
#344=ORIENTED_EDGE('',*,*,#397,.T.);
#345=SURFACE_STYLE_FILL_AREA(#398);
#346=ORIENTED_EDGE('',*,*,#384,.T.);
#347=ORIENTED_EDGE('',*,*,#397,.F.);
#348=ORIENTED_EDGE('',*,*,#371,.F.);
#349=ORIENTED_EDGE('',*,*,#399,.T.);
#350=DIRECTION('',(1.0,0.0,0.0));
#351=SURFACE_STYLE_FILL_AREA(#400);
#352=ORIENTED_EDGE('',*,*,#390,.T.);
#353=ORIENTED_EDGE('',*,*,#381,.F.);
#354=ORIENTED_EDGE('',*,*,#376,.F.);
#355=ORIENTED_EDGE('',*,*,#394,.T.);
#356=CARTESIAN_POINT('',(0.624956249999999,1.2499125,0.0));
#357=DIRECTION('',(0.0,1.0,0.0));
#358=DIRECTION('',(-1.0,0.0,0.0));
#359=SURFACE_STYLE_FILL_AREA(#401);
#360=ORIENTED_EDGE('',*,*,#386,.T.);
#361=ORIENTED_EDGE('',*,*,#402,.F.);
#362=ORIENTED_EDGE('',*,*,#373,.F.);
#363=ORIENTED_EDGE('',*,*,#396,.T.);
#364=SURFACE_STYLE_FILL_AREA(#403);
#365=ORIENTED_EDGE('',*,*,#385,.T.);
#366=ORIENTED_EDGE('',*,*,#399,.F.);
#367=ORIENTED_EDGE('',*,*,#370,.F.);
#368=ORIENTED_EDGE('',*,*,#402,.T.);
#369=FILL_AREA_STYLE('',(#404));
#370=EDGE_CURVE('',#405,#406,#407,.T.);
#371=EDGE_CURVE('',#406,#408,#409,.T.);
#372=EDGE_CURVE('',#408,#410,#411,.T.);
#373=EDGE_CURVE('',#410,#405,#412,.T.);
#374=EDGE_CURVE('',#413,#414,#415,.T.);
#375=EDGE_CURVE('',#414,#416,#417,.T.);
#376=EDGE_CURVE('',#416,#418,#419,.T.);
#377=EDGE_CURVE('',#418,#413,#420,.T.);
#378=FILL_AREA_STYLE('',(#421));
#379=EDGE_CURVE('',#422,#423,#424,.T.);
#380=EDGE_CURVE('',#413,#423,#425,.T.);
#381=EDGE_CURVE('',#418,#422,#426,.T.);
#382=FILL_AREA_STYLE('',(#427));
#383=FILL_AREA_STYLE('',(#428));
#384=EDGE_CURVE('',#429,#430,#431,.T.);
#385=EDGE_CURVE('',#432,#429,#433,.T.);
#386=EDGE_CURVE('',#434,#432,#435,.T.);
#387=EDGE_CURVE('',#430,#434,#436,.T.);
#388=EDGE_CURVE('',#437,#438,#439,.T.);
#389=EDGE_CURVE('',#423,#437,#440,.T.);
#390=EDGE_CURVE('',#438,#422,#441,.T.);
#391=FILL_AREA_STYLE('',(#442));
#392=EDGE_CURVE('',#414,#437,#443,.T.);
#393=FILL_AREA_STYLE('',(#444));
#394=EDGE_CURVE('',#416,#438,#445,.T.);
#395=FILL_AREA_STYLE('',(#446));
#396=EDGE_CURVE('',#410,#434,#447,.T.);
#397=EDGE_CURVE('',#408,#430,#448,.T.);
#398=FILL_AREA_STYLE('',(#449));
#399=EDGE_CURVE('',#406,#429,#450,.T.);
#400=FILL_AREA_STYLE('',(#451));
#401=FILL_AREA_STYLE('',(#452));
#402=EDGE_CURVE('',#405,#432,#453,.T.);
#403=FILL_AREA_STYLE('',(#454));
#404=FILL_AREA_STYLE_COLOUR('',#455);
#405=VERTEX_POINT('',#456);
#406=VERTEX_POINT('',#457);
#407=B_SPLINE_CURVE_WITH_KNOTS('',3,(#458,#459,#460,#461),.UNSPECIFIED.,.F.,.F.,(4,4),(0.0,1.0),.UNSPECIFIED.);
#408=VERTEX_POINT('',#462);
#409=B_SPLINE_CURVE_WITH_KNOTS('',3,(#463,#464,#465,#466),.UNSPECIFIED.,.F.,.F.,(4,4),(0.0,1.0),.UNSPECIFIED.);
#410=VERTEX_POINT('',#467);
#411=B_SPLINE_CURVE_WITH_KNOTS('',3,(#468,#469,#470,#471),.UNSPECIFIED.,.F.,.F.,(4,4),(0.0,1.0),.UNSPECIFIED.);
#412=B_SPLINE_CURVE_WITH_KNOTS('',3,(#472,#473,#474,#475),.UNSPECIFIED.,.F.,.F.,(4,4),(0.0,1.0),.UNSPECIFIED.);
#413=VERTEX_POINT('',#476);
#414=VERTEX_POINT('',#477);
#415=LINE('',#478,#479);
#416=VERTEX_POINT('',#480);
#417=LINE('',#481,#482);
#418=VERTEX_POINT('',#483);
#419=LINE('',#484,#485);
#420=LINE('',#486,#487);
#421=FILL_AREA_STYLE_COLOUR('',#488);
#422=VERTEX_POINT('',#489);
#423=VERTEX_POINT('',#490);
#424=LINE('',#491,#492);
#425=LINE('',#493,#494);
#426=LINE('',#495,#496);
#427=FILL_AREA_STYLE_COLOUR('',#497);
#428=FILL_AREA_STYLE_COLOUR('',#498);
#429=VERTEX_POINT('',#499);
#430=VERTEX_POINT('',#500);
#431=B_SPLINE_CURVE_WITH_KNOTS('',3,(#501,#502,#503,#504),.UNSPECIFIED.,.F.,.F.,(4,4),(0.0,1.0),.UNSPECIFIED.);
#432=VERTEX_POINT('',#505);
#433=B_SPLINE_CURVE_WITH_KNOTS('',3,(#506,#507,#508,#509),.UNSPECIFIED.,.F.,.F.,(4,4),(0.0,1.0),.UNSPECIFIED.);
#434=VERTEX_POINT('',#510);
#435=B_SPLINE_CURVE_WITH_KNOTS('',3,(#511,#512,#513,#514),.UNSPECIFIED.,.F.,.F.,(4,4),(0.0,1.0),.UNSPECIFIED.);
#436=B_SPLINE_CURVE_WITH_KNOTS('',3,(#515,#516,#517,#518),.UNSPECIFIED.,.F.,.F.,(4,4),(0.0,1.0),.UNSPECIFIED.);
#437=VERTEX_POINT('',#519);
#438=VERTEX_POINT('',#520);
#439=LINE('',#521,#522);
#440=LINE('',#523,#524);
#441=LINE('',#525,#526);
#442=FILL_AREA_STYLE_COLOUR('',#527);
#443=LINE('',#528,#529);
#444=FILL_AREA_STYLE_COLOUR('',#530);
#445=LINE('',#531,#532);
#446=FILL_AREA_STYLE_COLOUR('',#533);
#447=LINE('',#534,#535);
#448=LINE('',#536,#537);
#449=FILL_AREA_STYLE_COLOUR('',#538);
#450=LINE('',#539,#540);
#451=FILL_AREA_STYLE_COLOUR('',#541);
#452=FILL_AREA_STYLE_COLOUR('',#542);
#453=LINE('',#543,#544);
#454=FILL_AREA_STYLE_COLOUR('',#545);
#455=COLOUR_RGB('',0.443137258291245,0.443137258291245,0.776470601558685);
#456=CARTESIAN_POINT('',(0.624952777777777,0.421847222222222,0.0));
#457=CARTESIAN_POINT('',(0.828065277777777,0.624959722222222,0.0));
#458=CARTESIAN_POINT('',(0.624952777777777,0.421847222222222,0.0));
#459=CARTESIAN_POINT('',(0.737122222222221,0.421847222222222,0.0));
#460=CARTESIAN_POINT('',(0.828065277777777,0.512790277777778,0.0));
#461=CARTESIAN_POINT('',(0.828065277777777,0.624959722222222,0.0));
#462=CARTESIAN_POINT('',(0.624952777777777,0.828070833333333,0.0));
#463=CARTESIAN_POINT('',(0.828065277777777,0.624959722222222,0.0));
#464=CARTESIAN_POINT('',(0.828065277777777,0.737134722222222,0.0));
#465=CARTESIAN_POINT('',(0.737122222222221,0.828070833333333,0.0));
#466=CARTESIAN_POINT('',(0.624952777777777,0.828070833333333,0.0));
#467=CARTESIAN_POINT('',(0.421841666666667,0.624959722222222,0.0));
#468=CARTESIAN_POINT('',(0.624952777777777,0.828070833333333,0.0));
#469=CARTESIAN_POINT('',(0.512777777777779,0.828070833333333,0.0));
#470=CARTESIAN_POINT('',(0.421841666666667,0.737134722222222,0.0));
#471=CARTESIAN_POINT('',(0.421841666666667,0.624959722222222,0.0));
#472=CARTESIAN_POINT('',(0.421841666666667,0.624959722222222,0.0));
#473=CARTESIAN_POINT('',(0.421841666666667,0.512790277777778,0.0));
#474=CARTESIAN_POINT('',(0.512777777777779,0.421847222222222,0.0));
#475=CARTESIAN_POINT('',(0.624952777777777,0.421847222222222,0.0));
#476=CARTESIAN_POINT('',(1.2499125,0.0,0.0));
#477=CARTESIAN_POINT('',(0.0,0.0,0.0));
#478=CARTESIAN_POINT('',(1.2499125,0.0,0.0));
#479=VECTOR('',#546,1.0);
#480=CARTESIAN_POINT('',(0.0,1.2499125,0.0));
#481=CARTESIAN_POINT('',(0.0,0.0,0.0));
#482=VECTOR('',#547,1.0);
#483=CARTESIAN_POINT('',(1.2499125,1.2499125,0.0));
#484=CARTESIAN_POINT('',(0.0,1.2499125,0.0));
#485=VECTOR('',#548,1.0);
#486=CARTESIAN_POINT('',(1.2499125,1.2499125,0.0));
#487=VECTOR('',#549,1.0);
#488=COLOUR_RGB('',0.443137258291245,0.443137258291245,0.776470601558685);
#489=CARTESIAN_POINT('',(1.2499125,1.2499125,0.1875));
#490=CARTESIAN_POINT('',(1.2499125,0.0,0.1875));
#491=CARTESIAN_POINT('',(1.2499125,1.2499125,0.1875));
#492=VECTOR('',#550,1.0);
#493=CARTESIAN_POINT('',(1.2499125,0.0,0.0));
#494=VECTOR('',#551,1.0);
#495=CARTESIAN_POINT('',(1.2499125,1.2499125,0.0));
#496=VECTOR('',#552,1.0);
#497=COLOUR_RGB('',0.443137258291245,0.443137258291245,0.776470601558685);
#498=COLOUR_RGB('',0.443137258291245,0.443137258291245,0.776470601558685);
#499=CARTESIAN_POINT('',(0.828065277777777,0.624959722222222,0.1875));
#500=CARTESIAN_POINT('',(0.624952777777777,0.828070833333333,0.1875));
#501=CARTESIAN_POINT('',(0.828065277777777,0.624959722222222,0.1875));
#502=CARTESIAN_POINT('',(0.828065277777777,0.737134722222222,0.1875));
#503=CARTESIAN_POINT('',(0.737122222222221,0.828070833333333,0.1875));
#504=CARTESIAN_POINT('',(0.624952777777777,0.828070833333333,0.1875));
#505=CARTESIAN_POINT('',(0.624952777777777,0.421847222222222,0.1875));
#506=CARTESIAN_POINT('',(0.624952777777777,0.421847222222222,0.1875));
#507=CARTESIAN_POINT('',(0.737122222222221,0.421847222222222,0.1875));
#508=CARTESIAN_POINT('',(0.828065277777777,0.512790277777778,0.1875));
#509=CARTESIAN_POINT('',(0.828065277777777,0.624959722222222,0.1875));
#510=CARTESIAN_POINT('',(0.421841666666667,0.624959722222222,0.1875));
#511=CARTESIAN_POINT('',(0.421841666666667,0.624959722222222,0.1875));
#512=CARTESIAN_POINT('',(0.421841666666667,0.512790277777778,0.1875));
#513=CARTESIAN_POINT('',(0.512777777777779,0.421847222222222,0.1875));
#514=CARTESIAN_POINT('',(0.624952777777777,0.421847222222222,0.1875));
#515=CARTESIAN_POINT('',(0.624952777777777,0.828070833333333,0.1875));
#516=CARTESIAN_POINT('',(0.512777777777779,0.828070833333333,0.1875));
#517=CARTESIAN_POINT('',(0.421841666666667,0.737134722222222,0.1875));
#518=CARTESIAN_POINT('',(0.421841666666667,0.624959722222222,0.1875));
#519=CARTESIAN_POINT('',(0.0,0.0,0.1875));
#520=CARTESIAN_POINT('',(0.0,1.2499125,0.1875));
#521=CARTESIAN_POINT('',(0.0,0.0,0.1875));
#522=VECTOR('',#553,1.0);
#523=CARTESIAN_POINT('',(1.2499125,0.0,0.1875));
#524=VECTOR('',#554,1.0);
#525=CARTESIAN_POINT('',(0.0,1.2499125,0.1875));
#526=VECTOR('',#555,1.0);
#527=COLOUR_RGB('',0.443137258291245,0.443137258291245,0.776470601558685);
#528=CARTESIAN_POINT('',(0.0,0.0,0.0));
#529=VECTOR('',#556,1.0);
#530=COLOUR_RGB('',0.443137258291245,0.443137258291245,0.776470601558685);
#531=CARTESIAN_POINT('',(0.0,1.2499125,0.0));
#532=VECTOR('',#557,1.0);
#533=COLOUR_RGB('',0.443137258291245,0.443137258291245,0.776470601558685);
#534=CARTESIAN_POINT('',(0.421841666666667,0.624959722222222,0.0));
#535=VECTOR('',#558,1.0);
#536=CARTESIAN_POINT('',(0.624952777777777,0.828070833333333,0.0));
#537=VECTOR('',#559,1.0);
#538=COLOUR_RGB('',0.443137258291245,0.443137258291245,0.776470601558685);
#539=CARTESIAN_POINT('',(0.828065277777777,0.624959722222222,0.0));
#540=VECTOR('',#560,1.0);
#541=COLOUR_RGB('',0.443137258291245,0.443137258291245,0.776470601558685);
#542=COLOUR_RGB('',0.443137258291245,0.443137258291245,0.776470601558685);
#543=CARTESIAN_POINT('',(0.624952777777777,0.421847222222222,0.0));
#544=VECTOR('',#561,1.0);
#545=COLOUR_RGB('',0.443137258291245,0.443137258291245,0.776470601558685);
#546=DIRECTION('',(-1.0,0.0,0.0));
#547=DIRECTION('',(0.0,1.0,0.0));
#548=DIRECTION('',(1.0,0.0,0.0));
#549=DIRECTION('',(0.0,-1.0,0.0));
#550=DIRECTION('',(0.0,-1.0,0.0));
#551=DIRECTION('',(0.0,0.0,1.0));
#552=DIRECTION('',(0.0,0.0,1.0));
#553=DIRECTION('',(0.0,1.0,0.0));
#554=DIRECTION('',(-1.0,0.0,0.0));
#555=DIRECTION('',(1.0,0.0,0.0));
#556=DIRECTION('',(0.0,0.0,1.0));
#557=DIRECTION('',(0.0,0.0,1.0));
#558=DIRECTION('',(0.0,0.0,1.0));
#559=DIRECTION('',(0.0,0.0,1.0));
#560=DIRECTION('',(0.0,0.0,1.0));
#561=DIRECTION('',(0.0,0.0,1.0));
ENDSEC;
END-ISO-10303-21;
