ISO-10303-21;
HEADER;
FILE_DESCRIPTION(('TurboCAD Mac Pro'),'Build 980');
FILE_NAME('P1723.stp','  ',(''),(''),'ACIS Interop','IMSI','TurboCAD Mac Pro BY IMSI, INCORPORATED');
FILE_SCHEMA(('automotive_design'));
ENDSEC;
DATA;
#1=MECHANICAL_DESIGN_GEOMETRIC_PRESENTATION_REPRESENTATION(' ',(#14,#15,#16,#17,#18,#19,#20,#21,#22,#23,#24,#25,#26,#27,#28,#29,#30),#10);
#2=PRODUCT_DEFINITION_CONTEXT('',#31,'design');
#3=APPLICATION_PROTOCOL_DEFINITION('INTERNATIONAL STANDARD','automotive_design',1994,#31);
#4=PRODUCT_CATEGORY_RELATIONSHIP('NONE','NONE',#32,#33);
#5=SHAPE_DEFINITION_REPRESENTATION(#34,#35);
#6=PRODUCT_DEFINITION_CONTEXT('',#36,'design');
#7=APPLICATION_PROTOCOL_DEFINITION('INTERNATIONAL STANDARD','automotive_design',1994,#36);
#8=PRODUCT_CATEGORY_RELATIONSHIP('NONE','NONE',#37,#38);
#9=SHAPE_DEFINITION_REPRESENTATION(#39,#40);
#10= (GEOMETRIC_REPRESENTATION_CONTEXT(3)GLOBAL_UNCERTAINTY_ASSIGNED_CONTEXT((#43))GLOBAL_UNIT_ASSIGNED_CONTEXT((#45,#46,#47))REPRESENTATION_CONTEXT('NONE','WORKSPACE'));
#14=STYLED_ITEM('',(#49),#50);
#15=STYLED_ITEM('',(#51),#52);
#16=STYLED_ITEM('',(#53),#54);
#17=STYLED_ITEM('',(#55),#56);
#18=STYLED_ITEM('',(#57),#58);
#19=STYLED_ITEM('',(#59),#60);
#20=STYLED_ITEM('',(#61),#62);
#21=STYLED_ITEM('',(#63),#64);
#22=STYLED_ITEM('',(#65),#66);
#23=STYLED_ITEM('',(#67),#68);
#24=STYLED_ITEM('',(#69),#70);
#25=STYLED_ITEM('',(#71),#72);
#26=STYLED_ITEM('',(#73),#74);
#27=STYLED_ITEM('',(#75),#76);
#28=STYLED_ITEM('',(#77),#78);
#29=STYLED_ITEM('',(#79),#80);
#30=STYLED_ITEM('',(#81),#82);
#31=APPLICATION_CONTEXT(' ');
#32=PRODUCT_CATEGORY('part','NONE');
#33=PRODUCT_RELATED_PRODUCT_CATEGORY('detail',' ',(#83));
#34=PRODUCT_DEFINITION_SHAPE('NONE','NONE',#84);
#35=ADVANCED_BREP_SHAPE_REPRESENTATION('1',(#66,#85),#10);
#36=APPLICATION_CONTEXT(' ');
#37=PRODUCT_CATEGORY('part','NONE');
#38=PRODUCT_RELATED_PRODUCT_CATEGORY('detail',' ',(#86));
#39=PRODUCT_DEFINITION_SHAPE('NONE','NONE',#87);
#40=GEOMETRICALLY_BOUNDED_SURFACE_SHAPE_REPRESENTATION('2',(#88,#89),#10);
#43=UNCERTAINTY_MEASURE_WITH_UNIT(LENGTH_MEASURE(1.0E-06),#45,'','');
#45= (CONVERSION_BASED_UNIT('INCH',#92)LENGTH_UNIT()NAMED_UNIT(#95));
#46= (NAMED_UNIT(#97)PLANE_ANGLE_UNIT()SI_UNIT($,.RADIAN.));
#47= (NAMED_UNIT(#97)SOLID_ANGLE_UNIT()SI_UNIT($,.STERADIAN.));
#49=PRESENTATION_STYLE_ASSIGNMENT((#103));
#50=ADVANCED_FACE('',(#104),#105,.F.);
#51=PRESENTATION_STYLE_ASSIGNMENT((#106));
#52=ADVANCED_FACE('',(#107),#108,.F.);
#53=PRESENTATION_STYLE_ASSIGNMENT((#109));
#54=ADVANCED_FACE('',(#110,#111),#112,.T.);
#55=PRESENTATION_STYLE_ASSIGNMENT((#113));
#56=ADVANCED_FACE('',(#114),#115,.F.);
#57=PRESENTATION_STYLE_ASSIGNMENT((#116));
#58=ADVANCED_FACE('',(#117),#118,.T.);
#59=PRESENTATION_STYLE_ASSIGNMENT((#119));
#60=ADVANCED_FACE('',(#120,#121),#122,.T.);
#61=PRESENTATION_STYLE_ASSIGNMENT((#123));
#62=ADVANCED_FACE('',(#124,#125),#126,.T.);
#63=PRESENTATION_STYLE_ASSIGNMENT((#127));
#64=ADVANCED_FACE('',(#128),#129,.T.);
#65=PRESENTATION_STYLE_ASSIGNMENT((#130));
#66=MANIFOLD_SOLID_BREP('1',#131);
#67=PRESENTATION_STYLE_ASSIGNMENT((#132));
#68=ADVANCED_FACE('',(#133,#134),#135,.T.);
#69=PRESENTATION_STYLE_ASSIGNMENT((#136));
#70=TRIMMED_CURVE('',#137,(PARAMETER_VALUE(0.0)),(PARAMETER_VALUE(0.75)),.T.,.UNSPECIFIED.);
#71=PRESENTATION_STYLE_ASSIGNMENT((#138));
#72=ADVANCED_FACE('',(#139),#140,.T.);
#73=PRESENTATION_STYLE_ASSIGNMENT((#141));
#74=ADVANCED_FACE('',(#142),#143,.F.);
#75=PRESENTATION_STYLE_ASSIGNMENT((#144));
#76=TRIMMED_CURVE('',#145,(PARAMETER_VALUE(0.0)),(PARAMETER_VALUE(0.25)),.T.,.UNSPECIFIED.);
#77=PRESENTATION_STYLE_ASSIGNMENT((#146));
#78=ADVANCED_FACE('',(#147),#148,.F.);
#79=PRESENTATION_STYLE_ASSIGNMENT((#149));
#80=ADVANCED_FACE('',(#150),#151,.F.);
#81=PRESENTATION_STYLE_ASSIGNMENT((#152));
#82=ADVANCED_FACE('',(#153),#154,.T.);
#83=PRODUCT('1','1','PART-1-DESC',(#155));
#84=PRODUCT_DEFINITION('NONE','NONE',#156,#2);
#85=AXIS2_PLACEMENT_3D('',#157,#158,#159);
#86=PRODUCT('2','2','PART-2-DESC',(#160));
#87=PRODUCT_DEFINITION('NONE','NONE',#161,#6);
#88=GEOMETRIC_SET('2',(#162,#163));
#89=AXIS2_PLACEMENT_3D('',#164,#165,#166);
#92=LENGTH_MEASURE_WITH_UNIT(LENGTH_MEASURE(25.4),#167);
#95=DIMENSIONAL_EXPONENTS(1.0,0.0,0.0,0.0,0.0,0.0,0.0);
#97=DIMENSIONAL_EXPONENTS(0.0,0.0,0.0,0.0,0.0,0.0,0.0);
#103=SURFACE_STYLE_USAGE(.BOTH.,#168);
#104=FACE_OUTER_BOUND('',#169,.T.);
#105=CYLINDRICAL_SURFACE('',#170,0.15625);
#106=SURFACE_STYLE_USAGE(.BOTH.,#171);
#107=FACE_OUTER_BOUND('',#172,.T.);
#108=CYLINDRICAL_SURFACE('',#173,0.15625);
#109=SURFACE_STYLE_USAGE(.BOTH.,#174);
#110=FACE_BOUND('',#175,.T.);
#111=FACE_OUTER_BOUND('',#176,.T.);
#112=PLANE('',#177);
#113=SURFACE_STYLE_USAGE(.BOTH.,#178);
#114=FACE_OUTER_BOUND('',#179,.T.);
#115=CYLINDRICAL_SURFACE('',#180,0.15625);
#116=SURFACE_STYLE_USAGE(.BOTH.,#181);
#117=FACE_OUTER_BOUND('',#182,.T.);
#118=PLANE('',#183);
#119=SURFACE_STYLE_USAGE(.BOTH.,#184);
#120=FACE_BOUND('',#185,.T.);
#121=FACE_OUTER_BOUND('',#186,.T.);
#122=PLANE('',#187);
#123=SURFACE_STYLE_USAGE(.BOTH.,#188);
#124=FACE_BOUND('',#189,.T.);
#125=FACE_OUTER_BOUND('',#190,.T.);
#126=PLANE('',#191);
#127=SURFACE_STYLE_USAGE(.BOTH.,#192);
#128=FACE_OUTER_BOUND('',#193,.T.);
#129=PLANE('',#194);
#130=SURFACE_STYLE_USAGE(.BOTH.,#195);
#131=CLOSED_SHELL('',(#50,#78,#74,#56,#62,#82,#60,#64,#54,#52,#68,#58,#72,#80));
#132=SURFACE_STYLE_USAGE(.BOTH.,#196);
#133=FACE_BOUND('',#197,.T.);
#134=FACE_OUTER_BOUND('',#198,.T.);
#135=PLANE('',#199);
#136=CURVE_STYLE('',#200,POSITIVE_LENGTH_MEASURE(1.0E-06),#201);
#137=LINE('',#202,#203);
#138=SURFACE_STYLE_USAGE(.BOTH.,#204);
#139=FACE_OUTER_BOUND('',#205,.T.);
#140=PLANE('',#206);
#141=SURFACE_STYLE_USAGE(.BOTH.,#207);
#142=FACE_OUTER_BOUND('',#208,.T.);
#143=CYLINDRICAL_SURFACE('',#209,0.28125);
#144=CURVE_STYLE('',#210,POSITIVE_LENGTH_MEASURE(1.0E-06),#211);
#145=LINE('',#212,#213);
#146=SURFACE_STYLE_USAGE(.BOTH.,#214);
#147=FACE_OUTER_BOUND('',#215,.T.);
#148=CYLINDRICAL_SURFACE('',#216,0.28125);
#149=SURFACE_STYLE_USAGE(.BOTH.,#217);
#150=FACE_OUTER_BOUND('',#218,.T.);
#151=PLANE('',#219);
#152=SURFACE_STYLE_USAGE(.BOTH.,#220);
#153=FACE_OUTER_BOUND('',#221,.T.);
#154=CYLINDRICAL_SURFACE('',#222,0.40625);
#155=PRODUCT_CONTEXT('',#31,'mechanical');
#156=PRODUCT_DEFINITION_FORMATION_WITH_SPECIFIED_SOURCE(' ','NONE',#83,.NOT_KNOWN.);
#157=CARTESIAN_POINT('',(0.0,0.0,0.0));
#158=DIRECTION('',(0.0,0.0,1.0));
#159=DIRECTION('',(1.0,0.0,0.0));
#160=PRODUCT_CONTEXT('',#36,'mechanical');
#161=PRODUCT_DEFINITION_FORMATION_WITH_SPECIFIED_SOURCE(' ','NONE',#86,.NOT_KNOWN.);
#162=COMPOSITE_CURVE('',(#223),.U.);
#163=COMPOSITE_CURVE('',(#224),.U.);
#164=CARTESIAN_POINT('',(0.0,0.0,0.0));
#165=DIRECTION('',(0.0,0.0,1.0));
#166=DIRECTION('',(1.0,0.0,0.0));
#167= (NAMED_UNIT(#95)LENGTH_UNIT()SI_UNIT(.MILLI.,.METRE.));
#168=SURFACE_SIDE_STYLE('',(#226));
#169=EDGE_LOOP('',(#227,#228,#229,#230));
#170=AXIS2_PLACEMENT_3D('',#231,#232,#233);
#171=SURFACE_SIDE_STYLE('',(#234));
#172=EDGE_LOOP('',(#235,#236,#237,#238));
#173=AXIS2_PLACEMENT_3D('',#239,#240,#241);
#174=SURFACE_SIDE_STYLE('',(#242));
#175=EDGE_LOOP('',(#243,#244));
#176=EDGE_LOOP('',(#245,#246,#247,#248));
#177=AXIS2_PLACEMENT_3D('',#249,#250,#251);
#178=SURFACE_SIDE_STYLE('',(#252));
#179=EDGE_LOOP('',(#253,#254,#255,#256));
#180=AXIS2_PLACEMENT_3D('',#257,#258,#259);
#181=SURFACE_SIDE_STYLE('',(#260));
#182=EDGE_LOOP('',(#261,#262,#263,#264));
#183=AXIS2_PLACEMENT_3D('',#265,#266,#267);
#184=SURFACE_SIDE_STYLE('',(#268));
#185=EDGE_LOOP('',(#269,#270));
#186=EDGE_LOOP('',(#271,#272,#273,#274));
#187=AXIS2_PLACEMENT_3D('',#275,#276,#277);
#188=SURFACE_SIDE_STYLE('',(#278));
#189=EDGE_LOOP('',(#279,#280));
#190=EDGE_LOOP('',(#281,#282,#283,#284));
#191=AXIS2_PLACEMENT_3D('',#285,#286,#287);
#192=SURFACE_SIDE_STYLE('',(#288));
#193=EDGE_LOOP('',(#289,#290,#291,#292));
#194=AXIS2_PLACEMENT_3D('',#293,#294,#295);
#195=SURFACE_SIDE_STYLE('',(#296));
#196=SURFACE_SIDE_STYLE('',(#297));
#197=EDGE_LOOP('',(#298,#299));
#198=EDGE_LOOP('',(#300,#301,#302,#303));
#199=AXIS2_PLACEMENT_3D('',#304,#305,#306);
#200=DRAUGHTING_PRE_DEFINED_CURVE_FONT('continuous');
#201=COLOUR_RGB('',0.501960813999176,0.501960813999176,0.501960813999176);
#202=CARTESIAN_POINT('',(-0.25,0.812499999999999,0.394975622782401));
#203=VECTOR('',#307,1.0);
#204=SURFACE_SIDE_STYLE('',(#308));
#205=EDGE_LOOP('',(#309,#310,#311,#312,#313,#314,#315,#316));
#206=AXIS2_PLACEMENT_3D('',#317,#318,#319);
#207=SURFACE_SIDE_STYLE('',(#320));
#208=EDGE_LOOP('',(#321,#322,#323,#324));
#209=AXIS2_PLACEMENT_3D('',#325,#326,#327);
#210=DRAUGHTING_PRE_DEFINED_CURVE_FONT('continuous');
#211=COLOUR_RGB('',1.0,1.0,1.0);
#212=CARTESIAN_POINT('',(0.25,1.625,0.394975622782401));
#213=VECTOR('',#328,1.0);
#214=SURFACE_SIDE_STYLE('',(#329));
#215=EDGE_LOOP('',(#330,#331,#332,#333));
#216=AXIS2_PLACEMENT_3D('',#334,#335,#336);
#217=SURFACE_SIDE_STYLE('',(#337));
#218=EDGE_LOOP('',(#338,#339,#340,#341,#342,#343,#344,#345));
#219=AXIS2_PLACEMENT_3D('',#346,#347,#348);
#220=SURFACE_SIDE_STYLE('',(#349));
#221=EDGE_LOOP('',(#350,#351,#352,#353));
#222=AXIS2_PLACEMENT_3D('',#354,#355,#356);
#223=COMPOSITE_CURVE_SEGMENT('',.CONTINUOUS.,.T.,#70);
#224=COMPOSITE_CURVE_SEGMENT('',.CONTINUOUS.,.T.,#76);
#226=SURFACE_STYLE_FILL_AREA(#357);
#227=ORIENTED_EDGE('',*,*,#358,.F.);
#228=ORIENTED_EDGE('',*,*,#359,.F.);
#229=ORIENTED_EDGE('',*,*,#360,.F.);
#230=ORIENTED_EDGE('',*,*,#361,.F.);
#231=CARTESIAN_POINT('',(0.476616498259482,0.8125,1.0625));
#232=DIRECTION('',(1.0,-0.0,-0.0));
#233=DIRECTION('',(0.0,-1.0,0.0));
#234=SURFACE_STYLE_FILL_AREA(#362);
#235=ORIENTED_EDGE('',*,*,#363,.T.);
#236=ORIENTED_EDGE('',*,*,#364,.F.);
#237=ORIENTED_EDGE('',*,*,#365,.F.);
#238=ORIENTED_EDGE('',*,*,#366,.T.);
#239=CARTESIAN_POINT('',(0.40625,1.625,0.40625));
#240=DIRECTION('',(-0.0,1.0,-0.0));
#241=DIRECTION('',(1.0,0.0,0.0));
#242=SURFACE_STYLE_FILL_AREA(#367);
#243=ORIENTED_EDGE('',*,*,#368,.T.);
#244=ORIENTED_EDGE('',*,*,#361,.T.);
#245=ORIENTED_EDGE('',*,*,#369,.T.);
#246=ORIENTED_EDGE('',*,*,#366,.F.);
#247=ORIENTED_EDGE('',*,*,#370,.F.);
#248=ORIENTED_EDGE('',*,*,#371,.T.);
#249=CARTESIAN_POINT('',(0.25,1.625,1.140625));
#250=DIRECTION('',(1.0,0.0,-0.0));
#251=DIRECTION('',(0.0,0.0,1.0));
#252=SURFACE_STYLE_FILL_AREA(#372);
#253=ORIENTED_EDGE('',*,*,#358,.T.);
#254=ORIENTED_EDGE('',*,*,#368,.F.);
#255=ORIENTED_EDGE('',*,*,#360,.T.);
#256=ORIENTED_EDGE('',*,*,#373,.F.);
#257=CARTESIAN_POINT('',(0.476616498259482,0.8125,1.0625));
#258=DIRECTION('',(1.0,-0.0,-0.0));
#259=DIRECTION('',(0.0,-1.0,0.0));
#260=SURFACE_STYLE_FILL_AREA(#374);
#261=ORIENTED_EDGE('',*,*,#375,.T.);
#262=ORIENTED_EDGE('',*,*,#376,.F.);
#263=ORIENTED_EDGE('',*,*,#377,.F.);
#264=ORIENTED_EDGE('',*,*,#378,.T.);
#265=CARTESIAN_POINT('',(1.625,1.625,0.125));
#266=DIRECTION('',(1.0,0.0,-0.0));
#267=DIRECTION('',(0.0,0.0,1.0));
#268=SURFACE_STYLE_FILL_AREA(#379);
#269=ORIENTED_EDGE('',*,*,#359,.T.);
#270=ORIENTED_EDGE('',*,*,#373,.T.);
#271=ORIENTED_EDGE('',*,*,#380,.T.);
#272=ORIENTED_EDGE('',*,*,#381,.F.);
#273=ORIENTED_EDGE('',*,*,#382,.F.);
#274=ORIENTED_EDGE('',*,*,#383,.T.);
#275=CARTESIAN_POINT('',(0.0,1.625,1.140625));
#276=DIRECTION('',(-1.0,0.0,0.0));
#277=DIRECTION('',(0.0,0.0,-1.0));
#278=SURFACE_STYLE_FILL_AREA(#384);
#279=ORIENTED_EDGE('',*,*,#385,.T.);
#280=ORIENTED_EDGE('',*,*,#386,.T.);
#281=ORIENTED_EDGE('',*,*,#387,.T.);
#282=ORIENTED_EDGE('',*,*,#388,.F.);
#283=ORIENTED_EDGE('',*,*,#389,.F.);
#284=ORIENTED_EDGE('',*,*,#376,.T.);
#285=CARTESIAN_POINT('',(1.015625,1.625,-2.22044604925031E-16));
#286=DIRECTION('',(0.0,0.0,-1.0));
#287=DIRECTION('',(1.0,0.0,0.0));
#288=SURFACE_STYLE_FILL_AREA(#390);
#289=ORIENTED_EDGE('',*,*,#391,.T.);
#290=ORIENTED_EDGE('',*,*,#371,.F.);
#291=ORIENTED_EDGE('',*,*,#392,.F.);
#292=ORIENTED_EDGE('',*,*,#381,.T.);
#293=CARTESIAN_POINT('',(0.125,1.625,1.875));
#294=DIRECTION('',(0.0,0.0,1.0));
#295=DIRECTION('',(-1.0,0.0,-0.0));
#296=SURFACE_STYLE_FILL_AREA(#393);
#297=SURFACE_STYLE_FILL_AREA(#394);
#298=ORIENTED_EDGE('',*,*,#395,.T.);
#299=ORIENTED_EDGE('',*,*,#396,.T.);
#300=ORIENTED_EDGE('',*,*,#397,.T.);
#301=ORIENTED_EDGE('',*,*,#378,.F.);
#302=ORIENTED_EDGE('',*,*,#398,.F.);
#303=ORIENTED_EDGE('',*,*,#364,.T.);
#304=CARTESIAN_POINT('',(1.015625,1.625,0.25));
#305=DIRECTION('',(0.0,0.0,1.0));
#306=DIRECTION('',(-1.0,0.0,-0.0));
#307=DIRECTION('',(1.0,5.9211894646675E-16,7.40148683083437E-16));
#308=SURFACE_STYLE_FILL_AREA(#399);
#309=ORIENTED_EDGE('',*,*,#387,.F.);
#310=ORIENTED_EDGE('',*,*,#375,.F.);
#311=ORIENTED_EDGE('',*,*,#397,.F.);
#312=ORIENTED_EDGE('',*,*,#363,.F.);
#313=ORIENTED_EDGE('',*,*,#369,.F.);
#314=ORIENTED_EDGE('',*,*,#391,.F.);
#315=ORIENTED_EDGE('',*,*,#380,.F.);
#316=ORIENTED_EDGE('',*,*,#400,.F.);
#317=CARTESIAN_POINT('',(0.51102832213966,0.0,0.640493522643928));
#318=DIRECTION('',(0.0,-1.0,0.0));
#319=DIRECTION('',(1.0,0.0,0.0));
#320=SURFACE_STYLE_FILL_AREA(#401);
#321=ORIENTED_EDGE('',*,*,#402,.T.);
#322=ORIENTED_EDGE('',*,*,#395,.F.);
#323=ORIENTED_EDGE('',*,*,#403,.T.);
#324=ORIENTED_EDGE('',*,*,#386,.F.);
#325=CARTESIAN_POINT('',(0.8125,0.812499999999999,0.394975622782401));
#326=DIRECTION('',(-0.0,-0.0,1.0));
#327=DIRECTION('',(4.44089209850063E-16,1.0,0.0));
#328=DIRECTION('',(-1.0,0.0,0.0));
#329=SURFACE_STYLE_FILL_AREA(#404);
#330=ORIENTED_EDGE('',*,*,#402,.F.);
#331=ORIENTED_EDGE('',*,*,#385,.F.);
#332=ORIENTED_EDGE('',*,*,#403,.F.);
#333=ORIENTED_EDGE('',*,*,#396,.F.);
#334=CARTESIAN_POINT('',(0.8125,0.812499999999999,0.394975622782401));
#335=DIRECTION('',(-0.0,-0.0,1.0));
#336=DIRECTION('',(4.44089209850063E-16,1.0,0.0));
#337=SURFACE_STYLE_FILL_AREA(#405);
#338=ORIENTED_EDGE('',*,*,#377,.T.);
#339=ORIENTED_EDGE('',*,*,#389,.T.);
#340=ORIENTED_EDGE('',*,*,#406,.T.);
#341=ORIENTED_EDGE('',*,*,#382,.T.);
#342=ORIENTED_EDGE('',*,*,#392,.T.);
#343=ORIENTED_EDGE('',*,*,#370,.T.);
#344=ORIENTED_EDGE('',*,*,#365,.T.);
#345=ORIENTED_EDGE('',*,*,#398,.T.);
#346=CARTESIAN_POINT('',(0.51102832213966,1.625,0.640493522643928));
#347=DIRECTION('',(0.0,-1.0,0.0));
#348=DIRECTION('',(1.0,0.0,0.0));
#349=SURFACE_STYLE_FILL_AREA(#407);
#350=ORIENTED_EDGE('',*,*,#400,.T.);
#351=ORIENTED_EDGE('',*,*,#383,.F.);
#352=ORIENTED_EDGE('',*,*,#406,.F.);
#353=ORIENTED_EDGE('',*,*,#388,.T.);
#354=CARTESIAN_POINT('',(0.40625,1.625,0.40625));
#355=DIRECTION('',(-0.0,1.0,-0.0));
#356=DIRECTION('',(1.0,0.0,0.0));
#357=FILL_AREA_STYLE('',(#408));
#358=EDGE_CURVE('',#409,#410,#411,.T.);
#359=EDGE_CURVE('',#412,#409,#413,.T.);
#360=EDGE_CURVE('',#414,#412,#415,.T.);
#361=EDGE_CURVE('',#410,#414,#416,.T.);
#362=FILL_AREA_STYLE('',(#417));
#363=EDGE_CURVE('',#418,#419,#420,.T.);
#364=EDGE_CURVE('',#421,#419,#422,.T.);
#365=EDGE_CURVE('',#423,#421,#424,.T.);
#366=EDGE_CURVE('',#423,#418,#425,.T.);
#367=FILL_AREA_STYLE('',(#426));
#368=EDGE_CURVE('',#414,#410,#427,.T.);
#369=EDGE_CURVE('',#428,#418,#429,.T.);
#370=EDGE_CURVE('',#430,#423,#431,.T.);
#371=EDGE_CURVE('',#430,#428,#432,.T.);
#372=FILL_AREA_STYLE('',(#433));
#373=EDGE_CURVE('',#409,#412,#434,.T.);
#374=FILL_AREA_STYLE('',(#435));
#375=EDGE_CURVE('',#436,#437,#438,.T.);
#376=EDGE_CURVE('',#439,#437,#440,.T.);
#377=EDGE_CURVE('',#441,#439,#442,.T.);
#378=EDGE_CURVE('',#441,#436,#443,.T.);
#379=FILL_AREA_STYLE('',(#444));
#380=EDGE_CURVE('',#445,#446,#447,.T.);
#381=EDGE_CURVE('',#448,#446,#449,.T.);
#382=EDGE_CURVE('',#450,#448,#451,.T.);
#383=EDGE_CURVE('',#450,#445,#452,.T.);
#384=FILL_AREA_STYLE('',(#453));
#385=EDGE_CURVE('',#454,#455,#456,.T.);
#386=EDGE_CURVE('',#455,#454,#457,.T.);
#387=EDGE_CURVE('',#437,#458,#459,.T.);
#388=EDGE_CURVE('',#460,#458,#461,.T.);
#389=EDGE_CURVE('',#439,#460,#462,.T.);
#390=FILL_AREA_STYLE('',(#463));
#391=EDGE_CURVE('',#446,#428,#464,.T.);
#392=EDGE_CURVE('',#448,#430,#465,.T.);
#393=FILL_AREA_STYLE('',(#466));
#394=FILL_AREA_STYLE('',(#467));
#395=EDGE_CURVE('',#468,#469,#470,.T.);
#396=EDGE_CURVE('',#469,#468,#471,.T.);
#397=EDGE_CURVE('',#419,#436,#472,.T.);
#398=EDGE_CURVE('',#421,#441,#473,.T.);
#399=FILL_AREA_STYLE('',(#474));
#400=EDGE_CURVE('',#458,#445,#475,.T.);
#401=FILL_AREA_STYLE('',(#476));
#402=EDGE_CURVE('',#455,#469,#477,.T.);
#403=EDGE_CURVE('',#468,#454,#478,.T.);
#404=FILL_AREA_STYLE('',(#479));
#405=FILL_AREA_STYLE('',(#480));
#406=EDGE_CURVE('',#460,#450,#481,.T.);
#407=FILL_AREA_STYLE('',(#482));
#408=FILL_AREA_STYLE_COLOUR('',#483);
#409=VERTEX_POINT('',#484);
#410=VERTEX_POINT('',#485);
#411=LINE('',#486,#487);
#412=VERTEX_POINT('',#488);
#413=CIRCLE('',#489,0.15625);
#414=VERTEX_POINT('',#490);
#415=LINE('',#491,#492);
#416=CIRCLE('',#493,0.15625);
#417=FILL_AREA_STYLE_COLOUR('',#494);
#418=VERTEX_POINT('',#495);
#419=VERTEX_POINT('',#496);
#420=CIRCLE('',#497,0.15625);
#421=VERTEX_POINT('',#498);
#422=LINE('',#499,#500);
#423=VERTEX_POINT('',#501);
#424=CIRCLE('',#502,0.15625);
#425=LINE('',#503,#504);
#426=FILL_AREA_STYLE_COLOUR('',#505);
#427=CIRCLE('',#506,0.15625);
#428=VERTEX_POINT('',#507);
#429=LINE('',#508,#509);
#430=VERTEX_POINT('',#510);
#431=LINE('',#511,#512);
#432=LINE('',#513,#514);
#433=FILL_AREA_STYLE_COLOUR('',#515);
#434=CIRCLE('',#516,0.15625);
#435=FILL_AREA_STYLE_COLOUR('',#517);
#436=VERTEX_POINT('',#518);
#437=VERTEX_POINT('',#519);
#438=LINE('',#520,#521);
#439=VERTEX_POINT('',#522);
#440=LINE('',#523,#524);
#441=VERTEX_POINT('',#525);
#442=LINE('',#526,#527);
#443=LINE('',#528,#529);
#444=FILL_AREA_STYLE_COLOUR('',#530);
#445=VERTEX_POINT('',#531);
#446=VERTEX_POINT('',#532);
#447=LINE('',#533,#534);
#448=VERTEX_POINT('',#535);
#449=LINE('',#536,#537);
#450=VERTEX_POINT('',#538);
#451=LINE('',#539,#540);
#452=LINE('',#541,#542);
#453=FILL_AREA_STYLE_COLOUR('',#543);
#454=VERTEX_POINT('',#544);
#455=VERTEX_POINT('',#545);
#456=CIRCLE('',#546,0.28125);
#457=CIRCLE('',#547,0.28125);
#458=VERTEX_POINT('',#548);
#459=LINE('',#549,#550);
#460=VERTEX_POINT('',#551);
#461=LINE('',#552,#553);
#462=LINE('',#554,#555);
#463=FILL_AREA_STYLE_COLOUR('',#556);
#464=LINE('',#557,#558);
#465=LINE('',#559,#560);
#466=FILL_AREA_STYLE_COLOUR('',#561);
#467=FILL_AREA_STYLE_COLOUR('',#562);
#468=VERTEX_POINT('',#563);
#469=VERTEX_POINT('',#564);
#470=CIRCLE('',#565,0.28125);
#471=CIRCLE('',#566,0.28125);
#472=LINE('',#567,#568);
#473=LINE('',#569,#570);
#474=FILL_AREA_STYLE_COLOUR('',#571);
#475=CIRCLE('',#572,0.40625);
#476=FILL_AREA_STYLE_COLOUR('',#573);
#477=LINE('',#574,#575);
#478=LINE('',#576,#577);
#479=FILL_AREA_STYLE_COLOUR('',#578);
#480=FILL_AREA_STYLE_COLOUR('',#579);
#481=CIRCLE('',#580,0.40625);
#482=FILL_AREA_STYLE_COLOUR('',#581);
#483=COLOUR_RGB('',0.156862750649452,0.549019634723663,0.941176474094391);
#484=CARTESIAN_POINT('',(0.0,0.65625,1.0625));
#485=CARTESIAN_POINT('',(0.25,0.65625,1.0625));
#486=CARTESIAN_POINT('',(0.125,0.65625,1.0625));
#487=VECTOR('',#582,1.0);
#488=CARTESIAN_POINT('',(0.0,0.96875,1.0625));
#489=AXIS2_PLACEMENT_3D('',#583,#584,#585);
#490=CARTESIAN_POINT('',(0.25,0.96875,1.0625));
#491=CARTESIAN_POINT('',(0.125,0.96875,1.0625));
#492=VECTOR('',#586,1.0);
#493=AXIS2_PLACEMENT_3D('',#587,#588,#589);
#494=COLOUR_RGB('',0.156862750649452,0.549019634723663,0.941176474094391);
#495=CARTESIAN_POINT('',(0.25,0.0,0.40625));
#496=CARTESIAN_POINT('',(0.40625,0.0,0.25));
#497=AXIS2_PLACEMENT_3D('',#590,#591,#592);
#498=CARTESIAN_POINT('',(0.40625,1.625,0.25));
#499=CARTESIAN_POINT('',(0.40625,1.625,0.25));
#500=VECTOR('',#593,1.0);
#501=CARTESIAN_POINT('',(0.25,1.625,0.40625));
#502=AXIS2_PLACEMENT_3D('',#594,#595,#596);
#503=CARTESIAN_POINT('',(0.25,1.625,0.40625));
#504=VECTOR('',#597,1.0);
#505=COLOUR_RGB('',0.156862750649452,0.549019634723663,0.941176474094391);
#506=AXIS2_PLACEMENT_3D('',#598,#599,#600);
#507=CARTESIAN_POINT('',(0.25,0.0,1.875));
#508=CARTESIAN_POINT('',(0.25,0.0,1.875));
#509=VECTOR('',#601,1.0);
#510=CARTESIAN_POINT('',(0.25,1.625,1.875));
#511=CARTESIAN_POINT('',(0.25,1.625,1.875));
#512=VECTOR('',#602,1.0);
#513=CARTESIAN_POINT('',(0.25,1.625,1.875));
#514=VECTOR('',#603,1.0);
#515=COLOUR_RGB('',0.156862750649452,0.549019634723663,0.941176474094391);
#516=AXIS2_PLACEMENT_3D('',#604,#605,#606);
#517=COLOUR_RGB('',0.156862750649452,0.549019634723663,0.941176474094391);
#518=CARTESIAN_POINT('',(1.625,0.0,0.25));
#519=CARTESIAN_POINT('',(1.625,0.0,-2.22044604925031E-16));
#520=CARTESIAN_POINT('',(1.625,0.0,0.25));
#521=VECTOR('',#607,1.0);
#522=CARTESIAN_POINT('',(1.625,1.625,-2.22044604925031E-16));
#523=CARTESIAN_POINT('',(1.625,1.625,-2.22044604925031E-16));
#524=VECTOR('',#608,1.0);
#525=CARTESIAN_POINT('',(1.625,1.625,0.25));
#526=CARTESIAN_POINT('',(1.625,1.625,0.25));
#527=VECTOR('',#609,1.0);
#528=CARTESIAN_POINT('',(1.625,1.625,0.25));
#529=VECTOR('',#610,1.0);
#530=COLOUR_RGB('',0.156862750649452,0.549019634723663,0.941176474094391);
#531=CARTESIAN_POINT('',(0.0,0.0,0.40625));
#532=CARTESIAN_POINT('',(0.0,0.0,1.875));
#533=CARTESIAN_POINT('',(0.0,0.0,0.40625));
#534=VECTOR('',#611,1.0);
#535=CARTESIAN_POINT('',(0.0,1.625,1.875));
#536=CARTESIAN_POINT('',(0.0,1.625,1.875));
#537=VECTOR('',#612,1.0);
#538=CARTESIAN_POINT('',(0.0,1.625,0.40625));
#539=CARTESIAN_POINT('',(0.0,1.625,0.40625));
#540=VECTOR('',#613,1.0);
#541=CARTESIAN_POINT('',(0.0,1.625,0.40625));
#542=VECTOR('',#614,1.0);
#543=COLOUR_RGB('',0.156862750649452,0.549019634723663,0.941176474094391);
#544=CARTESIAN_POINT('',(0.8125,0.531249999999999,-2.22044604925031E-16));
#545=CARTESIAN_POINT('',(0.8125,1.09375,-1.94289029309402E-16));
#546=AXIS2_PLACEMENT_3D('',#615,#616,#617);
#547=AXIS2_PLACEMENT_3D('',#618,#619,#620);
#548=CARTESIAN_POINT('',(0.40625,0.0,-2.22044604925031E-16));
#549=CARTESIAN_POINT('',(1.625,0.0,-2.22044604925031E-16));
#550=VECTOR('',#621,1.0);
#551=CARTESIAN_POINT('',(0.40625,1.625,-2.22044604925031E-16));
#552=CARTESIAN_POINT('',(0.40625,1.625,-2.22044604925031E-16));
#553=VECTOR('',#622,1.0);
#554=CARTESIAN_POINT('',(1.625,1.625,-2.22044604925031E-16));
#555=VECTOR('',#623,1.0);
#556=COLOUR_RGB('',0.156862750649452,0.549019634723663,0.941176474094391);
#557=CARTESIAN_POINT('',(0.0,0.0,1.875));
#558=VECTOR('',#624,1.0);
#559=CARTESIAN_POINT('',(0.0,1.625,1.875));
#560=VECTOR('',#625,1.0);
#561=COLOUR_RGB('',0.156862750649452,0.549019634723663,0.941176474094391);
#562=COLOUR_RGB('',0.156862750649452,0.549019634723663,0.941176474094391);
#563=CARTESIAN_POINT('',(0.8125,0.531249999999999,0.25));
#564=CARTESIAN_POINT('',(0.8125,1.09375,0.25));
#565=AXIS2_PLACEMENT_3D('',#626,#627,#628);
#566=AXIS2_PLACEMENT_3D('',#629,#630,#631);
#567=CARTESIAN_POINT('',(0.40625,0.0,0.25));
#568=VECTOR('',#632,1.0);
#569=CARTESIAN_POINT('',(0.40625,1.625,0.25));
#570=VECTOR('',#633,1.0);
#571=COLOUR_RGB('',0.156862750649452,0.549019634723663,0.941176474094391);
#572=AXIS2_PLACEMENT_3D('',#634,#635,#636);
#573=COLOUR_RGB('',0.156862750649452,0.549019634723663,0.941176474094391);
#574=CARTESIAN_POINT('',(0.8125,1.09375,0.125));
#575=VECTOR('',#637,1.0);
#576=CARTESIAN_POINT('',(0.8125,0.531249999999999,0.125));
#577=VECTOR('',#638,1.0);
#578=COLOUR_RGB('',0.156862750649452,0.549019634723663,0.941176474094391);
#579=COLOUR_RGB('',0.156862750649452,0.549019634723663,0.941176474094391);
#580=AXIS2_PLACEMENT_3D('',#639,#640,#641);
#581=COLOUR_RGB('',0.156862750649452,0.549019634723663,0.941176474094391);
#582=DIRECTION('',(1.0,0.0,-0.0));
#583=CARTESIAN_POINT('',(0.0,0.8125,1.0625));
#584=DIRECTION('',(1.0,0.0,0.0));
#585=DIRECTION('',(0.0,-1.0,0.0));
#586=DIRECTION('',(-1.0,0.0,0.0));
#587=CARTESIAN_POINT('',(0.25,0.8125,1.0625));
#588=DIRECTION('',(-1.0,0.0,0.0));
#589=DIRECTION('',(0.0,-1.0,0.0));
#590=CARTESIAN_POINT('',(0.40625,0.0,0.40625));
#591=DIRECTION('',(0.0,-1.0,0.0));
#592=DIRECTION('',(1.0,0.0,0.0));
#593=DIRECTION('',(0.0,-1.0,0.0));
#594=CARTESIAN_POINT('',(0.40625,1.625,0.40625));
#595=DIRECTION('',(0.0,-1.0,0.0));
#596=DIRECTION('',(1.0,0.0,0.0));
#597=DIRECTION('',(0.0,-1.0,0.0));
#598=CARTESIAN_POINT('',(0.25,0.8125,1.0625));
#599=DIRECTION('',(-1.0,0.0,0.0));
#600=DIRECTION('',(0.0,-1.0,0.0));
#601=DIRECTION('',(0.0,0.0,-1.0));
#602=DIRECTION('',(0.0,0.0,-1.0));
#603=DIRECTION('',(0.0,-1.0,0.0));
#604=CARTESIAN_POINT('',(0.0,0.8125,1.0625));
#605=DIRECTION('',(1.0,0.0,0.0));
#606=DIRECTION('',(0.0,-1.0,0.0));
#607=DIRECTION('',(0.0,0.0,-1.0));
#608=DIRECTION('',(0.0,-1.0,0.0));
#609=DIRECTION('',(0.0,0.0,-1.0));
#610=DIRECTION('',(0.0,-1.0,0.0));
#611=DIRECTION('',(0.0,0.0,1.0));
#612=DIRECTION('',(0.0,-1.0,0.0));
#613=DIRECTION('',(0.0,0.0,1.0));
#614=DIRECTION('',(0.0,-1.0,0.0));
#615=CARTESIAN_POINT('',(0.8125,0.812499999999999,-2.22044604925031E-16));
#616=DIRECTION('',(0.0,-0.0,1.0));
#617=DIRECTION('',(4.44089209850063E-16,1.0,0.0));
#618=CARTESIAN_POINT('',(0.8125,0.812499999999999,-2.22044604925031E-16));
#619=DIRECTION('',(0.0,-0.0,1.0));
#620=DIRECTION('',(4.44089209850063E-16,1.0,0.0));
#621=DIRECTION('',(-1.0,0.0,0.0));
#622=DIRECTION('',(0.0,-1.0,0.0));
#623=DIRECTION('',(-1.0,0.0,0.0));
#624=DIRECTION('',(1.0,0.0,0.0));
#625=DIRECTION('',(1.0,0.0,0.0));
#626=CARTESIAN_POINT('',(0.8125,0.812499999999999,0.25));
#627=DIRECTION('',(0.0,0.0,-1.0));
#628=DIRECTION('',(4.44089209850063E-16,1.0,0.0));
#629=CARTESIAN_POINT('',(0.8125,0.812499999999999,0.25));
#630=DIRECTION('',(0.0,0.0,-1.0));
#631=DIRECTION('',(4.44089209850063E-16,1.0,0.0));
#632=DIRECTION('',(1.0,0.0,0.0));
#633=DIRECTION('',(1.0,0.0,0.0));
#634=CARTESIAN_POINT('',(0.40625,0.0,0.40625));
#635=DIRECTION('',(-0.0,1.0,0.0));
#636=DIRECTION('',(1.0,0.0,0.0));
#637=DIRECTION('',(-0.0,-0.0,1.0));
#638=DIRECTION('',(-0.0,-0.0,-1.0));
#639=CARTESIAN_POINT('',(0.40625,1.625,0.40625));
#640=DIRECTION('',(-0.0,1.0,0.0));
#641=DIRECTION('',(1.0,0.0,0.0));
ENDSEC;
END-ISO-10303-21;
