ISO-10303-21;
HEADER;
FILE_DESCRIPTION(('TurboCAD Mac Pro'),'Build 980');
FILE_NAME('P6062.stp','  ',(''),(''),'ACIS Interop','IMSI','TurboCAD Mac Pro BY IMSI, INCORPORATED');
FILE_SCHEMA(('automotive_design'));
ENDSEC;
DATA;
#1=MECHANICAL_DESIGN_GEOMETRIC_PRESENTATION_REPRESENTATION(' ',(#14,#15,#16,#17,#18,#19,#20,#21,#22,#23,#24,#25,#26,#27,#28,#29,#30,#31,#32),#10);
#2=PRODUCT_DEFINITION_CONTEXT('',#33,'design');
#3=APPLICATION_PROTOCOL_DEFINITION('INTERNATIONAL STANDARD','automotive_design',1994,#33);
#4=PRODUCT_CATEGORY_RELATIONSHIP('NONE','NONE',#34,#35);
#5=SHAPE_DEFINITION_REPRESENTATION(#36,#37);
#6=PRODUCT_DEFINITION_CONTEXT('',#38,'design');
#7=APPLICATION_PROTOCOL_DEFINITION('INTERNATIONAL STANDARD','automotive_design',1994,#38);
#8=PRODUCT_CATEGORY_RELATIONSHIP('NONE','NONE',#39,#40);
#9=SHAPE_DEFINITION_REPRESENTATION(#41,#42);
#10= (GEOMETRIC_REPRESENTATION_CONTEXT(3)GLOBAL_UNCERTAINTY_ASSIGNED_CONTEXT((#45))GLOBAL_UNIT_ASSIGNED_CONTEXT((#47,#48,#49))REPRESENTATION_CONTEXT('NONE','WORKSPACE'));
#14=STYLED_ITEM('',(#51),#52);
#15=STYLED_ITEM('',(#53),#54);
#16=STYLED_ITEM('',(#55),#56);
#17=STYLED_ITEM('',(#57),#58);
#18=STYLED_ITEM('',(#59),#60);
#19=STYLED_ITEM('',(#61),#62);
#20=STYLED_ITEM('',(#63),#64);
#21=STYLED_ITEM('',(#65),#66);
#22=STYLED_ITEM('',(#67),#68);
#23=STYLED_ITEM('',(#69),#70);
#24=STYLED_ITEM('',(#71),#72);
#25=STYLED_ITEM('',(#73),#74);
#26=STYLED_ITEM('',(#75),#76);
#27=STYLED_ITEM('',(#77),#78);
#28=STYLED_ITEM('',(#79),#80);
#29=STYLED_ITEM('',(#81),#82);
#30=STYLED_ITEM('',(#83),#84);
#31=STYLED_ITEM('',(#85),#86);
#32=STYLED_ITEM('',(#87),#88);
#33=APPLICATION_CONTEXT(' ');
#34=PRODUCT_CATEGORY('part','NONE');
#35=PRODUCT_RELATED_PRODUCT_CATEGORY('detail',' ',(#89));
#36=PRODUCT_DEFINITION_SHAPE('NONE','NONE',#90);
#37=ADVANCED_BREP_SHAPE_REPRESENTATION('1',(#74,#91),#10);
#38=APPLICATION_CONTEXT(' ');
#39=PRODUCT_CATEGORY('part','NONE');
#40=PRODUCT_RELATED_PRODUCT_CATEGORY('detail',' ',(#92));
#41=PRODUCT_DEFINITION_SHAPE('NONE','NONE',#93);
#42=GEOMETRICALLY_BOUNDED_SURFACE_SHAPE_REPRESENTATION('2',(#94,#95),#10);
#45=UNCERTAINTY_MEASURE_WITH_UNIT(LENGTH_MEASURE(1.0E-06),#47,'','');
#47= (CONVERSION_BASED_UNIT('INCH',#98)LENGTH_UNIT()NAMED_UNIT(#101));
#48= (NAMED_UNIT(#103)PLANE_ANGLE_UNIT()SI_UNIT($,.RADIAN.));
#49= (NAMED_UNIT(#103)SOLID_ANGLE_UNIT()SI_UNIT($,.STERADIAN.));
#51=PRESENTATION_STYLE_ASSIGNMENT((#109));
#52=TRIMMED_CURVE('',#110,(PARAMETER_VALUE(0.0)),(PARAMETER_VALUE(1.0)),.T.,.UNSPECIFIED.);
#53=PRESENTATION_STYLE_ASSIGNMENT((#111));
#54=TRIMMED_CURVE('',#112,(PARAMETER_VALUE(0.0)),(PARAMETER_VALUE(1.0)),.T.,.UNSPECIFIED.);
#55=PRESENTATION_STYLE_ASSIGNMENT((#113));
#56=TRIMMED_CURVE('',#114,(PARAMETER_VALUE(0.0)),(PARAMETER_VALUE(0.8125)),.T.,.UNSPECIFIED.);
#57=PRESENTATION_STYLE_ASSIGNMENT((#115));
#58=TRIMMED_CURVE('',#116,(PARAMETER_VALUE(0.0)),(PARAMETER_VALUE(0.8125)),.T.,.UNSPECIFIED.);
#59=PRESENTATION_STYLE_ASSIGNMENT((#117));
#60=ADVANCED_FACE('',(#118),#119,.T.);
#61=PRESENTATION_STYLE_ASSIGNMENT((#120));
#62=ADVANCED_FACE('',(#121),#122,.T.);
#63=PRESENTATION_STYLE_ASSIGNMENT((#123));
#64=ADVANCED_FACE('',(#124),#125,.T.);
#65=PRESENTATION_STYLE_ASSIGNMENT((#126));
#66=ADVANCED_FACE('',(#127),#128,.T.);
#67=PRESENTATION_STYLE_ASSIGNMENT((#129));
#68=TRIMMED_CURVE('',#130,(PARAMETER_VALUE(0.0)),(PARAMETER_VALUE(1.0)),.T.,.UNSPECIFIED.);
#69=PRESENTATION_STYLE_ASSIGNMENT((#131));
#70=TRIMMED_CURVE('',#132,(PARAMETER_VALUE(0.0)),(PARAMETER_VALUE(0.812513888888889)),.T.,.UNSPECIFIED.);
#71=PRESENTATION_STYLE_ASSIGNMENT((#133));
#72=ADVANCED_FACE('',(#134,#135),#136,.T.);
#73=PRESENTATION_STYLE_ASSIGNMENT((#137));
#74=MANIFOLD_SOLID_BREP('1',#138);
#75=PRESENTATION_STYLE_ASSIGNMENT((#139));
#76=TRIMMED_CURVE('',#140,(PARAMETER_VALUE(0.0)),(PARAMETER_VALUE(1.0)),.T.,.UNSPECIFIED.);
#77=PRESENTATION_STYLE_ASSIGNMENT((#141));
#78=ADVANCED_FACE('',(#142,#143),#144,.F.);
#79=PRESENTATION_STYLE_ASSIGNMENT((#145));
#80=ADVANCED_FACE('',(#146),#147,.T.);
#81=PRESENTATION_STYLE_ASSIGNMENT((#148));
#82=TRIMMED_CURVE('',#149,(PARAMETER_VALUE(0.0)),(PARAMETER_VALUE(0.812513888888889)),.T.,.UNSPECIFIED.);
#83=PRESENTATION_STYLE_ASSIGNMENT((#150));
#84=ADVANCED_FACE('',(#151),#152,.T.);
#85=PRESENTATION_STYLE_ASSIGNMENT((#153));
#86=ADVANCED_FACE('',(#154),#155,.T.);
#87=PRESENTATION_STYLE_ASSIGNMENT((#156));
#88=ADVANCED_FACE('',(#157),#158,.T.);
#89=PRODUCT('1','1','PART-1-DESC',(#159));
#90=PRODUCT_DEFINITION('NONE','NONE',#160,#2);
#91=AXIS2_PLACEMENT_3D('',#161,#162,#163);
#92=PRODUCT('2','2','PART-2-DESC',(#164));
#93=PRODUCT_DEFINITION('NONE','NONE',#165,#6);
#94=GEOMETRIC_SET('2',(#166,#167,#168,#169,#170,#171,#172,#173));
#95=AXIS2_PLACEMENT_3D('',#174,#175,#176);
#98=LENGTH_MEASURE_WITH_UNIT(LENGTH_MEASURE(25.4),#177);
#101=DIMENSIONAL_EXPONENTS(1.0,0.0,0.0,0.0,0.0,0.0,0.0);
#103=DIMENSIONAL_EXPONENTS(0.0,0.0,0.0,0.0,0.0,0.0,0.0);
#109=CURVE_STYLE('',#178,POSITIVE_LENGTH_MEASURE(1.0E-06),#179);
#110=B_SPLINE_CURVE_WITH_KNOTS('',3,(#180,#181,#182,#183),.UNSPECIFIED.,.F.,.F.,(4,4),(0.0,1.0),.UNSPECIFIED.);
#111=CURVE_STYLE('',#184,POSITIVE_LENGTH_MEASURE(1.0E-06),#185);
#112=B_SPLINE_CURVE_WITH_KNOTS('',3,(#186,#187,#188,#189),.UNSPECIFIED.,.F.,.F.,(4,4),(0.0,1.0),.UNSPECIFIED.);
#113=CURVE_STYLE('',#190,POSITIVE_LENGTH_MEASURE(1.0E-06),#191);
#114=LINE('',#192,#193);
#115=CURVE_STYLE('',#194,POSITIVE_LENGTH_MEASURE(1.0E-06),#195);
#116=LINE('',#196,#197);
#117=SURFACE_STYLE_USAGE(.BOTH.,#198);
#118=FACE_OUTER_BOUND('',#199,.T.);
#119=PLANE('',#200);
#120=SURFACE_STYLE_USAGE(.BOTH.,#201);
#121=FACE_OUTER_BOUND('',#202,.T.);
#122=B_SPLINE_SURFACE_WITH_KNOTS('',3,1,((#203,#204),(#205,#206),(#207,#208),(#209,#210)),.UNSPECIFIED.,.F.,.F.,.F.,(4,4),(2,2),(-1.0,-0.0),(0.0,0.125),.UNSPECIFIED.);
#123=SURFACE_STYLE_USAGE(.BOTH.,#211);
#124=FACE_OUTER_BOUND('',#212,.T.);
#125=B_SPLINE_SURFACE_WITH_KNOTS('',3,1,((#213,#214),(#215,#216),(#217,#218),(#219,#220)),.UNSPECIFIED.,.F.,.F.,.F.,(4,4),(2,2),(-1.0,-0.0),(0.0,0.125),.UNSPECIFIED.);
#126=SURFACE_STYLE_USAGE(.BOTH.,#221);
#127=FACE_OUTER_BOUND('',#222,.T.);
#128=PLANE('',#223);
#129=CURVE_STYLE('',#224,POSITIVE_LENGTH_MEASURE(1.0E-06),#225);
#130=B_SPLINE_CURVE_WITH_KNOTS('',3,(#226,#227,#228,#229),.UNSPECIFIED.,.F.,.F.,(4,4),(0.0,1.0),.UNSPECIFIED.);
#131=CURVE_STYLE('',#230,POSITIVE_LENGTH_MEASURE(1.0E-06),#231);
#132=LINE('',#232,#233);
#133=SURFACE_STYLE_USAGE(.BOTH.,#234);
#134=FACE_BOUND('',#235,.T.);
#135=FACE_OUTER_BOUND('',#236,.T.);
#136=PLANE('',#237);
#137=SURFACE_STYLE_USAGE(.BOTH.,#238);
#138=CLOSED_SHELL('',(#84,#80,#60,#66,#88,#64,#62,#86,#72,#78));
#139=CURVE_STYLE('',#239,POSITIVE_LENGTH_MEASURE(1.0E-06),#240);
#140=B_SPLINE_CURVE_WITH_KNOTS('',3,(#241,#242,#243,#244),.UNSPECIFIED.,.F.,.F.,(4,4),(0.0,1.0),.UNSPECIFIED.);
#141=SURFACE_STYLE_USAGE(.BOTH.,#245);
#142=FACE_BOUND('',#246,.T.);
#143=FACE_OUTER_BOUND('',#247,.T.);
#144=PLANE('',#248);
#145=SURFACE_STYLE_USAGE(.BOTH.,#249);
#146=FACE_OUTER_BOUND('',#250,.T.);
#147=PLANE('',#251);
#148=CURVE_STYLE('',#252,POSITIVE_LENGTH_MEASURE(1.0E-06),#253);
#149=LINE('',#254,#255);
#150=SURFACE_STYLE_USAGE(.BOTH.,#256);
#151=FACE_OUTER_BOUND('',#257,.T.);
#152=PLANE('',#258);
#153=SURFACE_STYLE_USAGE(.BOTH.,#259);
#154=FACE_OUTER_BOUND('',#260,.T.);
#155=B_SPLINE_SURFACE_WITH_KNOTS('',3,1,((#261,#262),(#263,#264),(#265,#266),(#267,#268)),.UNSPECIFIED.,.F.,.F.,.F.,(4,4),(2,2),(-1.0,-0.0),(0.0,0.125),.UNSPECIFIED.);
#156=SURFACE_STYLE_USAGE(.BOTH.,#269);
#157=FACE_OUTER_BOUND('',#270,.T.);
#158=B_SPLINE_SURFACE_WITH_KNOTS('',3,1,((#271,#272),(#273,#274),(#275,#276),(#277,#278)),.UNSPECIFIED.,.F.,.F.,.F.,(4,4),(2,2),(-1.0,-0.0),(0.0,0.125),.UNSPECIFIED.);
#159=PRODUCT_CONTEXT('',#33,'mechanical');
#160=PRODUCT_DEFINITION_FORMATION_WITH_SPECIFIED_SOURCE(' ','NONE',#89,.NOT_KNOWN.);
#161=CARTESIAN_POINT('',(0.0,0.0,0.0));
#162=DIRECTION('',(0.0,0.0,1.0));
#163=DIRECTION('',(1.0,0.0,0.0));
#164=PRODUCT_CONTEXT('',#38,'mechanical');
#165=PRODUCT_DEFINITION_FORMATION_WITH_SPECIFIED_SOURCE(' ','NONE',#92,.NOT_KNOWN.);
#166=COMPOSITE_CURVE('',(#279),.U.);
#167=COMPOSITE_CURVE('',(#280),.U.);
#168=COMPOSITE_CURVE('',(#281),.U.);
#169=COMPOSITE_CURVE('',(#282),.U.);
#170=COMPOSITE_CURVE('',(#283),.U.);
#171=COMPOSITE_CURVE('',(#284),.U.);
#172=COMPOSITE_CURVE('',(#285),.U.);
#173=COMPOSITE_CURVE('',(#286),.U.);
#174=CARTESIAN_POINT('',(0.0,0.0,0.0));
#175=DIRECTION('',(0.0,0.0,1.0));
#176=DIRECTION('',(1.0,0.0,0.0));
#177= (NAMED_UNIT(#101)LENGTH_UNIT()SI_UNIT(.MILLI.,.METRE.));
#178=DRAUGHTING_PRE_DEFINED_CURVE_FONT('continuous');
#179=COLOUR_RGB('',0.0,0.0,0.0);
#180=CARTESIAN_POINT('',(0.406263888888889,0.546990277777778,0.0));
#181=CARTESIAN_POINT('',(0.328525,0.546990277777778,0.0));
#182=CARTESIAN_POINT('',(0.265516666666667,0.483975,0.0));
#183=CARTESIAN_POINT('',(0.265516666666667,0.406243055555556,0.0));
#184=DRAUGHTING_PRE_DEFINED_CURVE_FONT('continuous');
#185=COLOUR_RGB('',0.0,0.0,0.0);
#186=CARTESIAN_POINT('',(0.406263888888889,0.265509722222223,0.0));
#187=CARTESIAN_POINT('',(0.483981944444445,0.265509722222223,0.0));
#188=CARTESIAN_POINT('',(0.546997222222223,0.328525000000001,0.0));
#189=CARTESIAN_POINT('',(0.546997222222223,0.406243055555556,0.0));
#190=DRAUGHTING_PRE_DEFINED_CURVE_FONT('continuous');
#191=COLOUR_RGB('',0.0,0.0,0.0);
#192=CARTESIAN_POINT('',(0.0,0.0,0.0));
#193=VECTOR('',#288,1.0);
#194=DRAUGHTING_PRE_DEFINED_CURVE_FONT('continuous');
#195=COLOUR_RGB('',0.0,0.0,0.0);
#196=CARTESIAN_POINT('',(0.812513888888889,0.8125,0.0));
#197=VECTOR('',#289,1.0);
#198=SURFACE_SIDE_STYLE('',(#290));
#199=EDGE_LOOP('',(#291,#292,#293,#294));
#200=AXIS2_PLACEMENT_3D('',#295,#296,#297);
#201=SURFACE_SIDE_STYLE('',(#298));
#202=EDGE_LOOP('',(#299,#300,#301,#302));
#203=CARTESIAN_POINT('',(0.406263888888889,0.265509722222223,0.0));
#204=CARTESIAN_POINT('',(0.406263888888889,0.265509722222223,0.125));
#205=CARTESIAN_POINT('',(0.328525,0.265509722222223,0.0));
#206=CARTESIAN_POINT('',(0.328525,0.265509722222223,0.125));
#207=CARTESIAN_POINT('',(0.265516666666667,0.328525000000001,0.0));
#208=CARTESIAN_POINT('',(0.265516666666667,0.328525000000001,0.125));
#209=CARTESIAN_POINT('',(0.265516666666667,0.406243055555556,0.0));
#210=CARTESIAN_POINT('',(0.265516666666667,0.406243055555556,0.125));
#211=SURFACE_SIDE_STYLE('',(#303));
#212=EDGE_LOOP('',(#304,#305,#306,#307));
#213=CARTESIAN_POINT('',(0.265516666666667,0.406243055555556,0.0));
#214=CARTESIAN_POINT('',(0.265516666666667,0.406243055555556,0.125));
#215=CARTESIAN_POINT('',(0.265516666666667,0.483975,0.0));
#216=CARTESIAN_POINT('',(0.265516666666667,0.483975,0.125));
#217=CARTESIAN_POINT('',(0.328525,0.546990277777778,0.0));
#218=CARTESIAN_POINT('',(0.328525,0.546990277777778,0.125));
#219=CARTESIAN_POINT('',(0.406263888888889,0.546990277777778,0.0));
#220=CARTESIAN_POINT('',(0.406263888888889,0.546990277777778,0.125));
#221=SURFACE_SIDE_STYLE('',(#308));
#222=EDGE_LOOP('',(#309,#310,#311,#312));
#223=AXIS2_PLACEMENT_3D('',#313,#314,#315);
#224=DRAUGHTING_PRE_DEFINED_CURVE_FONT('continuous');
#225=COLOUR_RGB('',0.0,0.0,0.0);
#226=CARTESIAN_POINT('',(0.546997222222223,0.406243055555556,0.0));
#227=CARTESIAN_POINT('',(0.546997222222223,0.483975,0.0));
#228=CARTESIAN_POINT('',(0.483981944444445,0.546990277777778,0.0));
#229=CARTESIAN_POINT('',(0.406263888888889,0.546990277777778,0.0));
#230=DRAUGHTING_PRE_DEFINED_CURVE_FONT('continuous');
#231=COLOUR_RGB('',0.0,0.0,0.0);
#232=CARTESIAN_POINT('',(0.812513888888889,0.0,0.0));
#233=VECTOR('',#316,1.0);
#234=SURFACE_SIDE_STYLE('',(#317));
#235=EDGE_LOOP('',(#318,#319,#320,#321));
#236=EDGE_LOOP('',(#322,#323,#324,#325));
#237=AXIS2_PLACEMENT_3D('',#326,#327,#328);
#238=SURFACE_SIDE_STYLE('',(#329));
#239=DRAUGHTING_PRE_DEFINED_CURVE_FONT('continuous');
#240=COLOUR_RGB('',0.0,0.0,0.0);
#241=CARTESIAN_POINT('',(0.265516666666667,0.406243055555556,0.0));
#242=CARTESIAN_POINT('',(0.265516666666667,0.328525000000001,0.0));
#243=CARTESIAN_POINT('',(0.328525,0.265509722222223,0.0));
#244=CARTESIAN_POINT('',(0.406263888888889,0.265509722222223,0.0));
#245=SURFACE_SIDE_STYLE('',(#330));
#246=EDGE_LOOP('',(#331,#332,#333,#334));
#247=EDGE_LOOP('',(#335,#336,#337,#338));
#248=AXIS2_PLACEMENT_3D('',#339,#340,#341);
#249=SURFACE_SIDE_STYLE('',(#342));
#250=EDGE_LOOP('',(#343,#344,#345,#346));
#251=AXIS2_PLACEMENT_3D('',#347,#348,#349);
#252=DRAUGHTING_PRE_DEFINED_CURVE_FONT('continuous');
#253=COLOUR_RGB('',0.0,0.0,0.0);
#254=CARTESIAN_POINT('',(0.0,0.8125,0.0));
#255=VECTOR('',#350,1.0);
#256=SURFACE_SIDE_STYLE('',(#351));
#257=EDGE_LOOP('',(#352,#353,#354,#355));
#258=AXIS2_PLACEMENT_3D('',#356,#357,#358);
#259=SURFACE_SIDE_STYLE('',(#359));
#260=EDGE_LOOP('',(#360,#361,#362,#363));
#261=CARTESIAN_POINT('',(0.546997222222223,0.406243055555556,0.0));
#262=CARTESIAN_POINT('',(0.546997222222223,0.406243055555556,0.125));
#263=CARTESIAN_POINT('',(0.546997222222223,0.328525000000001,0.0));
#264=CARTESIAN_POINT('',(0.546997222222223,0.328525000000001,0.125));
#265=CARTESIAN_POINT('',(0.483981944444445,0.265509722222223,0.0));
#266=CARTESIAN_POINT('',(0.483981944444445,0.265509722222223,0.125));
#267=CARTESIAN_POINT('',(0.406263888888889,0.265509722222223,0.0));
#268=CARTESIAN_POINT('',(0.406263888888889,0.265509722222223,0.125));
#269=SURFACE_SIDE_STYLE('',(#364));
#270=EDGE_LOOP('',(#365,#366,#367,#368));
#271=CARTESIAN_POINT('',(0.406263888888889,0.546990277777778,0.0));
#272=CARTESIAN_POINT('',(0.406263888888889,0.546990277777778,0.125));
#273=CARTESIAN_POINT('',(0.483981944444445,0.546990277777778,0.0));
#274=CARTESIAN_POINT('',(0.483981944444445,0.546990277777778,0.125));
#275=CARTESIAN_POINT('',(0.546997222222223,0.483975,0.0));
#276=CARTESIAN_POINT('',(0.546997222222223,0.483975,0.125));
#277=CARTESIAN_POINT('',(0.546997222222223,0.406243055555556,0.0));
#278=CARTESIAN_POINT('',(0.546997222222223,0.406243055555556,0.125));
#279=COMPOSITE_CURVE_SEGMENT('',.CONTINUOUS.,.T.,#68);
#280=COMPOSITE_CURVE_SEGMENT('',.CONTINUOUS.,.T.,#52);
#281=COMPOSITE_CURVE_SEGMENT('',.CONTINUOUS.,.T.,#76);
#282=COMPOSITE_CURVE_SEGMENT('',.CONTINUOUS.,.T.,#54);
#283=COMPOSITE_CURVE_SEGMENT('',.CONTINUOUS.,.T.,#70);
#284=COMPOSITE_CURVE_SEGMENT('',.CONTINUOUS.,.T.,#56);
#285=COMPOSITE_CURVE_SEGMENT('',.CONTINUOUS.,.T.,#82);
#286=COMPOSITE_CURVE_SEGMENT('',.CONTINUOUS.,.T.,#58);
#288=DIRECTION('',(0.0,1.0,0.0));
#289=DIRECTION('',(0.0,-1.0,0.0));
#290=SURFACE_STYLE_FILL_AREA(#369);
#291=ORIENTED_EDGE('',*,*,#370,.T.);
#292=ORIENTED_EDGE('',*,*,#371,.F.);
#293=ORIENTED_EDGE('',*,*,#372,.F.);
#294=ORIENTED_EDGE('',*,*,#373,.T.);
#295=CARTESIAN_POINT('',(0.406256944444445,0.8125,0.0));
#296=DIRECTION('',(0.0,1.0,0.0));
#297=DIRECTION('',(-1.0,0.0,0.0));
#298=SURFACE_STYLE_FILL_AREA(#374);
#299=ORIENTED_EDGE('',*,*,#375,.T.);
#300=ORIENTED_EDGE('',*,*,#376,.F.);
#301=ORIENTED_EDGE('',*,*,#377,.F.);
#302=ORIENTED_EDGE('',*,*,#378,.T.);
#303=SURFACE_STYLE_FILL_AREA(#379);
#304=ORIENTED_EDGE('',*,*,#380,.T.);
#305=ORIENTED_EDGE('',*,*,#378,.F.);
#306=ORIENTED_EDGE('',*,*,#381,.F.);
#307=ORIENTED_EDGE('',*,*,#382,.T.);
#308=SURFACE_STYLE_FILL_AREA(#383);
#309=ORIENTED_EDGE('',*,*,#384,.T.);
#310=ORIENTED_EDGE('',*,*,#385,.F.);
#311=ORIENTED_EDGE('',*,*,#386,.F.);
#312=ORIENTED_EDGE('',*,*,#371,.T.);
#313=CARTESIAN_POINT('',(0.812513888888889,0.40625,0.0));
#314=DIRECTION('',(1.0,0.0,-0.0));
#315=DIRECTION('',(-0.0,1.0,0.0));
#316=DIRECTION('',(-1.0,0.0,0.0));
#317=SURFACE_STYLE_FILL_AREA(#387);
#318=ORIENTED_EDGE('',*,*,#388,.F.);
#319=ORIENTED_EDGE('',*,*,#389,.F.);
#320=ORIENTED_EDGE('',*,*,#375,.F.);
#321=ORIENTED_EDGE('',*,*,#380,.F.);
#322=ORIENTED_EDGE('',*,*,#390,.F.);
#323=ORIENTED_EDGE('',*,*,#384,.F.);
#324=ORIENTED_EDGE('',*,*,#370,.F.);
#325=ORIENTED_EDGE('',*,*,#391,.F.);
#326=CARTESIAN_POINT('',(0.406256944444444,0.40625,0.125));
#327=DIRECTION('',(0.0,0.0,1.0));
#328=DIRECTION('',(1.0,0.0,0.0));
#329=SURFACE_STYLE_FILL_AREA(#392);
#330=SURFACE_STYLE_FILL_AREA(#393);
#331=ORIENTED_EDGE('',*,*,#394,.T.);
#332=ORIENTED_EDGE('',*,*,#395,.T.);
#333=ORIENTED_EDGE('',*,*,#381,.T.);
#334=ORIENTED_EDGE('',*,*,#377,.T.);
#335=ORIENTED_EDGE('',*,*,#386,.T.);
#336=ORIENTED_EDGE('',*,*,#396,.T.);
#337=ORIENTED_EDGE('',*,*,#397,.T.);
#338=ORIENTED_EDGE('',*,*,#372,.T.);
#339=CARTESIAN_POINT('',(0.406256944444444,0.40625,0.0));
#340=DIRECTION('',(0.0,0.0,1.0));
#341=DIRECTION('',(1.0,0.0,0.0));
#342=SURFACE_STYLE_FILL_AREA(#398);
#343=ORIENTED_EDGE('',*,*,#391,.T.);
#344=ORIENTED_EDGE('',*,*,#373,.F.);
#345=ORIENTED_EDGE('',*,*,#397,.F.);
#346=ORIENTED_EDGE('',*,*,#399,.T.);
#347=CARTESIAN_POINT('',(0.0,0.40625,0.0));
#348=DIRECTION('',(-1.0,-0.0,0.0));
#349=DIRECTION('',(0.0,-1.0,-0.0));
#350=DIRECTION('',(1.0,0.0,0.0));
#351=SURFACE_STYLE_FILL_AREA(#400);
#352=ORIENTED_EDGE('',*,*,#390,.T.);
#353=ORIENTED_EDGE('',*,*,#399,.F.);
#354=ORIENTED_EDGE('',*,*,#396,.F.);
#355=ORIENTED_EDGE('',*,*,#385,.T.);
#356=CARTESIAN_POINT('',(0.406256944444445,0.0,0.0));
#357=DIRECTION('',(0.0,-1.0,0.0));
#358=DIRECTION('',(1.0,0.0,-0.0));
#359=SURFACE_STYLE_FILL_AREA(#401);
#360=ORIENTED_EDGE('',*,*,#389,.T.);
#361=ORIENTED_EDGE('',*,*,#402,.F.);
#362=ORIENTED_EDGE('',*,*,#394,.F.);
#363=ORIENTED_EDGE('',*,*,#376,.T.);
#364=SURFACE_STYLE_FILL_AREA(#403);
#365=ORIENTED_EDGE('',*,*,#388,.T.);
#366=ORIENTED_EDGE('',*,*,#382,.F.);
#367=ORIENTED_EDGE('',*,*,#395,.F.);
#368=ORIENTED_EDGE('',*,*,#402,.T.);
#369=FILL_AREA_STYLE('',(#404));
#370=EDGE_CURVE('',#405,#406,#407,.T.);
#371=EDGE_CURVE('',#408,#406,#409,.T.);
#372=EDGE_CURVE('',#410,#408,#411,.T.);
#373=EDGE_CURVE('',#410,#405,#412,.T.);
#374=FILL_AREA_STYLE('',(#413));
#375=EDGE_CURVE('',#414,#415,#416,.T.);
#376=EDGE_CURVE('',#417,#415,#418,.T.);
#377=EDGE_CURVE('',#419,#417,#420,.T.);
#378=EDGE_CURVE('',#419,#414,#421,.T.);
#379=FILL_AREA_STYLE('',(#422));
#380=EDGE_CURVE('',#423,#414,#424,.T.);
#381=EDGE_CURVE('',#425,#419,#426,.T.);
#382=EDGE_CURVE('',#425,#423,#427,.T.);
#383=FILL_AREA_STYLE('',(#428));
#384=EDGE_CURVE('',#406,#429,#430,.T.);
#385=EDGE_CURVE('',#431,#429,#432,.T.);
#386=EDGE_CURVE('',#408,#431,#433,.T.);
#387=FILL_AREA_STYLE('',(#434));
#388=EDGE_CURVE('',#435,#423,#436,.T.);
#389=EDGE_CURVE('',#415,#435,#437,.T.);
#390=EDGE_CURVE('',#429,#438,#439,.T.);
#391=EDGE_CURVE('',#438,#405,#440,.T.);
#392=FILL_AREA_STYLE('',(#441));
#393=FILL_AREA_STYLE('',(#442));
#394=EDGE_CURVE('',#417,#443,#444,.T.);
#395=EDGE_CURVE('',#443,#425,#445,.T.);
#396=EDGE_CURVE('',#431,#446,#447,.T.);
#397=EDGE_CURVE('',#446,#410,#448,.T.);
#398=FILL_AREA_STYLE('',(#449));
#399=EDGE_CURVE('',#446,#438,#450,.T.);
#400=FILL_AREA_STYLE('',(#451));
#401=FILL_AREA_STYLE('',(#452));
#402=EDGE_CURVE('',#443,#435,#453,.T.);
#403=FILL_AREA_STYLE('',(#454));
#404=FILL_AREA_STYLE_COLOUR('',#455);
#405=VERTEX_POINT('',#456);
#406=VERTEX_POINT('',#457);
#407=LINE('',#458,#459);
#408=VERTEX_POINT('',#460);
#409=LINE('',#461,#462);
#410=VERTEX_POINT('',#463);
#411=LINE('',#464,#465);
#412=LINE('',#466,#467);
#413=FILL_AREA_STYLE_COLOUR('',#468);
#414=VERTEX_POINT('',#469);
#415=VERTEX_POINT('',#470);
#416=B_SPLINE_CURVE_WITH_KNOTS('',3,(#471,#472,#473,#474),.UNSPECIFIED.,.F.,.F.,(4,4),(0.0,1.0),.UNSPECIFIED.);
#417=VERTEX_POINT('',#475);
#418=LINE('',#476,#477);
#419=VERTEX_POINT('',#478);
#420=B_SPLINE_CURVE_WITH_KNOTS('',3,(#479,#480,#481,#482),.UNSPECIFIED.,.F.,.F.,(4,4),(0.0,1.0),.UNSPECIFIED.);
#421=LINE('',#483,#484);
#422=FILL_AREA_STYLE_COLOUR('',#485);
#423=VERTEX_POINT('',#486);
#424=B_SPLINE_CURVE_WITH_KNOTS('',3,(#487,#488,#489,#490),.UNSPECIFIED.,.F.,.F.,(4,4),(0.0,1.0),.UNSPECIFIED.);
#425=VERTEX_POINT('',#491);
#426=B_SPLINE_CURVE_WITH_KNOTS('',3,(#492,#493,#494,#495),.UNSPECIFIED.,.F.,.F.,(4,4),(0.0,1.0),.UNSPECIFIED.);
#427=LINE('',#496,#497);
#428=FILL_AREA_STYLE_COLOUR('',#498);
#429=VERTEX_POINT('',#499);
#430=LINE('',#500,#501);
#431=VERTEX_POINT('',#502);
#432=LINE('',#503,#504);
#433=LINE('',#505,#506);
#434=FILL_AREA_STYLE_COLOUR('',#507);
#435=VERTEX_POINT('',#508);
#436=B_SPLINE_CURVE_WITH_KNOTS('',3,(#509,#510,#511,#512),.UNSPECIFIED.,.F.,.F.,(4,4),(0.0,1.0),.UNSPECIFIED.);
#437=B_SPLINE_CURVE_WITH_KNOTS('',3,(#513,#514,#515,#516),.UNSPECIFIED.,.F.,.F.,(4,4),(0.0,1.0),.UNSPECIFIED.);
#438=VERTEX_POINT('',#517);
#439=LINE('',#518,#519);
#440=LINE('',#520,#521);
#441=FILL_AREA_STYLE_COLOUR('',#522);
#442=FILL_AREA_STYLE_COLOUR('',#523);
#443=VERTEX_POINT('',#524);
#444=B_SPLINE_CURVE_WITH_KNOTS('',3,(#525,#526,#527,#528),.UNSPECIFIED.,.F.,.F.,(4,4),(0.0,1.0),.UNSPECIFIED.);
#445=B_SPLINE_CURVE_WITH_KNOTS('',3,(#529,#530,#531,#532),.UNSPECIFIED.,.F.,.F.,(4,4),(0.0,1.0),.UNSPECIFIED.);
#446=VERTEX_POINT('',#533);
#447=LINE('',#534,#535);
#448=LINE('',#536,#537);
#449=FILL_AREA_STYLE_COLOUR('',#538);
#450=LINE('',#539,#540);
#451=FILL_AREA_STYLE_COLOUR('',#541);
#452=FILL_AREA_STYLE_COLOUR('',#542);
#453=LINE('',#543,#544);
#454=FILL_AREA_STYLE_COLOUR('',#545);
#455=COLOUR_RGB('',0.443137258291245,0.443137258291245,0.776470601558685);
#456=CARTESIAN_POINT('',(0.0,0.8125,0.125));
#457=CARTESIAN_POINT('',(0.812513888888889,0.8125,0.125));
#458=CARTESIAN_POINT('',(0.0,0.8125,0.125));
#459=VECTOR('',#546,1.0);
#460=CARTESIAN_POINT('',(0.812513888888889,0.8125,0.0));
#461=CARTESIAN_POINT('',(0.812513888888889,0.8125,0.0));
#462=VECTOR('',#547,1.0);
#463=CARTESIAN_POINT('',(0.0,0.8125,0.0));
#464=CARTESIAN_POINT('',(0.0,0.8125,0.0));
#465=VECTOR('',#548,1.0);
#466=CARTESIAN_POINT('',(0.0,0.8125,0.0));
#467=VECTOR('',#549,1.0);
#468=COLOUR_RGB('',0.443137258291245,0.443137258291245,0.776470601558685);
#469=CARTESIAN_POINT('',(0.265516666666667,0.406243055555556,0.125));
#470=CARTESIAN_POINT('',(0.406263888888889,0.265509722222223,0.125));
#471=CARTESIAN_POINT('',(0.265516666666667,0.406243055555556,0.125));
#472=CARTESIAN_POINT('',(0.265516666666667,0.328525000000001,0.125));
#473=CARTESIAN_POINT('',(0.328525,0.265509722222223,0.125));
#474=CARTESIAN_POINT('',(0.406263888888889,0.265509722222223,0.125));
#475=CARTESIAN_POINT('',(0.406263888888889,0.265509722222223,0.0));
#476=CARTESIAN_POINT('',(0.406263888888889,0.265509722222223,0.0));
#477=VECTOR('',#550,1.0);
#478=CARTESIAN_POINT('',(0.265516666666667,0.406243055555556,0.0));
#479=CARTESIAN_POINT('',(0.265516666666667,0.406243055555556,0.0));
#480=CARTESIAN_POINT('',(0.265516666666667,0.328525000000001,0.0));
#481=CARTESIAN_POINT('',(0.328525,0.265509722222223,0.0));
#482=CARTESIAN_POINT('',(0.406263888888889,0.265509722222223,0.0));
#483=CARTESIAN_POINT('',(0.265516666666667,0.406243055555556,0.0));
#484=VECTOR('',#551,1.0);
#485=COLOUR_RGB('',0.443137258291245,0.443137258291245,0.776470601558685);
#486=CARTESIAN_POINT('',(0.406263888888889,0.546990277777778,0.125));
#487=CARTESIAN_POINT('',(0.406263888888889,0.546990277777778,0.125));
#488=CARTESIAN_POINT('',(0.328525,0.546990277777778,0.125));
#489=CARTESIAN_POINT('',(0.265516666666667,0.483975,0.125));
#490=CARTESIAN_POINT('',(0.265516666666667,0.406243055555556,0.125));
#491=CARTESIAN_POINT('',(0.406263888888889,0.546990277777778,0.0));
#492=CARTESIAN_POINT('',(0.406263888888889,0.546990277777778,0.0));
#493=CARTESIAN_POINT('',(0.328525,0.546990277777778,0.0));
#494=CARTESIAN_POINT('',(0.265516666666667,0.483975,0.0));
#495=CARTESIAN_POINT('',(0.265516666666667,0.406243055555556,0.0));
#496=CARTESIAN_POINT('',(0.406263888888889,0.546990277777778,0.0));
#497=VECTOR('',#552,1.0);
#498=COLOUR_RGB('',0.443137258291245,0.443137258291245,0.776470601558685);
#499=CARTESIAN_POINT('',(0.812513888888889,0.0,0.125));
#500=CARTESIAN_POINT('',(0.812513888888889,0.8125,0.125));
#501=VECTOR('',#553,1.0);
#502=CARTESIAN_POINT('',(0.812513888888889,0.0,0.0));
#503=CARTESIAN_POINT('',(0.812513888888889,0.0,0.0));
#504=VECTOR('',#554,1.0);
#505=CARTESIAN_POINT('',(0.812513888888889,0.8125,0.0));
#506=VECTOR('',#555,1.0);
#507=COLOUR_RGB('',0.443137258291245,0.443137258291245,0.776470601558685);
#508=CARTESIAN_POINT('',(0.546997222222223,0.406243055555556,0.125));
#509=CARTESIAN_POINT('',(0.546997222222223,0.406243055555556,0.125));
#510=CARTESIAN_POINT('',(0.546997222222223,0.483975,0.125));
#511=CARTESIAN_POINT('',(0.483981944444445,0.546990277777778,0.125));
#512=CARTESIAN_POINT('',(0.406263888888889,0.546990277777778,0.125));
#513=CARTESIAN_POINT('',(0.406263888888889,0.265509722222223,0.125));
#514=CARTESIAN_POINT('',(0.483981944444445,0.265509722222223,0.125));
#515=CARTESIAN_POINT('',(0.546997222222223,0.328525000000001,0.125));
#516=CARTESIAN_POINT('',(0.546997222222223,0.406243055555556,0.125));
#517=CARTESIAN_POINT('',(0.0,0.0,0.125));
#518=CARTESIAN_POINT('',(0.812513888888889,0.0,0.125));
#519=VECTOR('',#556,1.0);
#520=CARTESIAN_POINT('',(0.0,0.0,0.125));
#521=VECTOR('',#557,1.0);
#522=COLOUR_RGB('',0.443137258291245,0.443137258291245,0.776470601558685);
#523=COLOUR_RGB('',0.443137258291245,0.443137258291245,0.776470601558685);
#524=CARTESIAN_POINT('',(0.546997222222223,0.406243055555556,0.0));
#525=CARTESIAN_POINT('',(0.406263888888889,0.265509722222223,0.0));
#526=CARTESIAN_POINT('',(0.483981944444445,0.265509722222223,0.0));
#527=CARTESIAN_POINT('',(0.546997222222223,0.328525000000001,0.0));
#528=CARTESIAN_POINT('',(0.546997222222223,0.406243055555556,0.0));
#529=CARTESIAN_POINT('',(0.546997222222223,0.406243055555556,0.0));
#530=CARTESIAN_POINT('',(0.546997222222223,0.483975,0.0));
#531=CARTESIAN_POINT('',(0.483981944444445,0.546990277777778,0.0));
#532=CARTESIAN_POINT('',(0.406263888888889,0.546990277777778,0.0));
#533=CARTESIAN_POINT('',(0.0,0.0,0.0));
#534=CARTESIAN_POINT('',(0.812513888888889,0.0,0.0));
#535=VECTOR('',#558,1.0);
#536=CARTESIAN_POINT('',(0.0,0.0,0.0));
#537=VECTOR('',#559,1.0);
#538=COLOUR_RGB('',0.443137258291245,0.443137258291245,0.776470601558685);
#539=CARTESIAN_POINT('',(0.0,0.0,0.0));
#540=VECTOR('',#560,1.0);
#541=COLOUR_RGB('',0.443137258291245,0.443137258291245,0.776470601558685);
#542=COLOUR_RGB('',0.443137258291245,0.443137258291245,0.776470601558685);
#543=CARTESIAN_POINT('',(0.546997222222223,0.406243055555556,0.0));
#544=VECTOR('',#561,1.0);
#545=COLOUR_RGB('',0.443137258291245,0.443137258291245,0.776470601558685);
#546=DIRECTION('',(1.0,0.0,0.0));
#547=DIRECTION('',(0.0,0.0,1.0));
#548=DIRECTION('',(1.0,0.0,0.0));
#549=DIRECTION('',(0.0,0.0,1.0));
#550=DIRECTION('',(0.0,0.0,1.0));
#551=DIRECTION('',(0.0,0.0,1.0));
#552=DIRECTION('',(0.0,0.0,1.0));
#553=DIRECTION('',(0.0,-1.0,0.0));
#554=DIRECTION('',(0.0,0.0,1.0));
#555=DIRECTION('',(0.0,-1.0,0.0));
#556=DIRECTION('',(-1.0,0.0,0.0));
#557=DIRECTION('',(0.0,1.0,0.0));
#558=DIRECTION('',(-1.0,0.0,0.0));
#559=DIRECTION('',(0.0,1.0,0.0));
#560=DIRECTION('',(0.0,0.0,1.0));
#561=DIRECTION('',(0.0,0.0,1.0));
ENDSEC;
END-ISO-10303-21;
